>
 >
Our Time Is Running Out

Our Time Is Running Out Guitar Tabs

Muse - Our Time Is Running Out chords, tabs, tablatures, lyrics

Guitar lessons | Add/correct | Request | Top 50 tabs Artists:  A B C D E F G H I J K L M N O P Q R S T U V W X Y Z 0-9

Our Time Is Running Out Guitar Tabs – Muse

CD, Sheet music, Poster

Do you like Our Time Is Running Out? Share with your friends now
Tabs
TIME IS RUNNING OUT
                               As recorded by Muse
                        (From the 2003 Album ABSOLUTION)

Words and Music by Muse

          F5                   G5                   C5                   A5
      1 3 3 x x x          3 5 5 x x x         8 10 10 x x x         5 7 7 x x x

          B5                   E5                 E5open                 D5
      7 9 9 x x x          x 7 9 9 x x          0 2 2 x x x          x 5 7 7 x x

Gtr I (E A D G B E) - 'overdrive'
Gtr II (E A D G B E) - 'Overdrive 2'
Gtr III (E A D G B E) - 'intro bit'
Gtr IV (D A D G B E) - 'Overdrive 3'
Gtr V (E A D G B E) - 'Untitled'

 Intro
  Q=118
  N.C.
 4/4
  Gtr I
  Wx12
|---------|
|---------|
|---------|
|---------|
|---------|
|---------|


   Verse
    N.C.
    Gtr III
     H    Q   Q     H    Q   Q    H    Q   Q     H     Q  Q
||--12----8------|-11----8------|------7--12--|-13----10--7----||
||o----------10--|----------10--|-9-----------|---------------o||
||---------------|--------------|-------------|----------------||
||---------------|--------------|-------------|----------------||
||o--------------|--------------|-------------|---------------o||
||---------------|--------------|-------------|----------------||


 Pre-Chorus
  F5                G5                A5                G5
  Gtr II
  E E E E E E E E   E E E E E E E E   E E E E E E E E   E E E E E E E E
  | | | | | | | |   | | | | | | | |   | | | | | | | |   | | | | | | | |
  / / / / / / / /   / / / / / / / /   / / / / / / / /   / / / / / / / /

  Gtr I
  PM------------------------------------------------------------------|
  E E E E E E E E   E E E E E E E E   E E E E E E E E   E E E E E E E E
|-----------------|-----------------|-----------------|-----------------|
|-----------------|-----------------|-----------------|-----------------|
|-4-4-4-5-5-5-5-5-|-7-7-7-5-5-5-4-4-|-4-4-4-5-5-5-5-5-|-7-7-7-5-5-5-4-4-|
|-3-3-3-3-3-3-3-3-|-5-5-5-5-5-5-5-5-|-3-3-3-3-3-3-3-3-|-5-5-5-5-5-5-5-5-|
|-----------------|-----------------|-----------------|-----------------|
|-----------------|-----------------|-----------------|-----------------|


  F5                G5                A5
  E E E E E E E E   E E E E E E E E   E E E E E E E E
  | | | | | | | |   | | | | | | | |   | | | | | | | |
  / / / / / / / /   / / / / / / / /   / / / / / / / /

  PM------------------------------|
  E E E E E E E E   E E E E E E E E   E E E E E E E E
|-----------------|-----------------|-----------------|
|-----------------|-----------------|-----------------|
|-4-4-4-5-5-5-5-5-|-7-7-7-5-5-5-4-4-|-4-4-4-5-5-5-5-5-|
|-3-3-3-3-3-3-3-3-|-5-5-5-5-5-5-5-5-|-3-3-3-3-3-3-3-3-|
|-----------------|-----------------|-----------------|
|-----------------|-----------------|-----------------|


  C5
  E   E    E     E     E     E    E   E
  |   |    |     |     |     |    |   |
  /   /    /     /     /     /    /   /

  S S S S  S  S  S  S  S  S  S  S S S S S
|------------------------------------------|
|------------------------------------------|
|-x-x-x-x-12-12-12-12-10-10-10-10-9-9-9-9--|
|-x-x-x-x--x--x--x--x--x--x--x--x-x-x-x-x--|
|-----x-x-10-10-10-10--8--8--8--8-7-7-7-7--|
|------------------------------------------|


 Chorus 1
  $                                                            To Coda
  F5                G5                A5                C5
  E E E E E E E E   E E E E E E E E   E E E E E E E E   E E E E E E E E
  | | | | | | | |   | | | | | | | |   | | | | | | | |   | | | | | | | |
  / / / / / / / /   / / / / / / / /   / / / / / / / /   / / / / / / / /

  E E E E E E E E   E E E E E E E E   E E E E E E E E   E E E E E E E E
|-----------------|-----------------|-----------------|-----------------|
|-1-1-1-1-1-1-1-1-|-3-3-3-3-3-3-3-3-|-5-5-5-5-5-5-5-5-|-5-5-5-5-5-5-5-5-|
|-5-5-5-5-5-5-5-5-|-4-4-4-4-4-4-4-4-|-5-5-5-5-5-5-5-5-|-5-5-5-5-5-5-5-5-|
|-3-3-3-3-3-3-3-3-|-5-5-5-5-5-5-5-5-|-7-7-7-7-7-7-7-7-|-5-5-5-5-5-5-5-5-|
|-3-3-3-3-3-3-3-3-|-5-5-5-5-5-5-5-5-|-7-7-7-7-7-7-7-7-|-3-3-3-3-3-3-3-3-|
|-1-1-1-1-1-1-1-1-|-3-3-3-3-3-3-3-3-|-5-5-5-5-5-5-5-5-|-----------------|


  F5                G5                A5                F5  C5F5G5  D5G5
  E E E E E E E E   E E E E E E E E   E E E E E E E E   E E E E E E E E
  | | | | | | | |   | | | | | | | |   | | | | | | | |   | | | | | | | |
  / / / / / / / /   / / / / / / / /   / / / / / / / /   / / / / / / / /

  E E E E E E E E   E E E E E E E E   E E E E E E E E   E E E E E E E E
|-----------------|-----------------|-----------------|-----------------|
|-1-1-1-1-1-1-1-1-|-3-3-3-3-3-3-3-3-|-5-5-5-5-5-5-5-5-|-----------------|
|-5-5-5-5-5-5-5-5-|-4-4-4-4-4-4-4-4-|-5-5-5-5-5-5-5-5-|-----5-------7---|
|-3-3-3-3-3-3-3-3-|-5-5-5-5-5-5-5-5-|-7-7-7-7-7-7-7-7-|-3-3-5-3-5-5-7-5-|
|-3-3-3-3-3-3-3-3-|-5-5-5-5-5-5-5-5-|-7-7-7-7-7-7-7-7-|-3-3-3-3-5-5-5-5-|
|-1-1-1-1-1-1-1-1-|-3-3-3-3-3-3-3-3-|-5-5-5-5-5-5-5-5-|-1-1---1-3-3---3-|


 Verse/Solo Start
  A5   C5A5         B5   A5B5         E5opE5E5open     F5   C5F5G5   D5G5
   E E E E H         E E E E H        E E E E H         E E E E  E E E E
   | | | |           | | | |          | | | |           | | | |  | | | |
   / / / /           / / / /          / / / /           / / / /  / / / /

   TP      TP  TP    TP      TP  TP   TP      TP  TP    TP       TP  TP
   H       Q   Q     H       Q   Q    H       Q   Q     H        Q   Q
|-12-------8------|-11-------8------|---------7--12--|-13-------10---7---|
|-------------10--|-------------10--|-9--------------|-------------------|
|-----------------|-----------------|----------------|-------------------|
|-----------------|-----------------|----------------|-------------------|
|-----------------|-----------------|----------------|-------------------|
|-----------------|-----------------|----------------|-------------------|


    A5    C5A5         B5    A5B5
     E  E E E  H        E  E E E  H
     |  | | |           |  | | |
     /  / / /           /  / / /

     H         H        H         H
||-------------------|------------------|
||o------------------|------------------|
||--<x>-------<x>----|-<x>-------<x>----|
||--<x>-------<x>----|-<x>-------<x>----|
||o-<x>-------<x>----|-<x>-------<x>----|
||--<x>-------<x>----|-<x>-------<x>----|


  E5openE5E5open     F5    C5F5G5    D5G5
   E  E E E  H        E  E E E  E  E E E
   |  | | |           |  | | |  |  | | |
   /  / / /           /  / / /  /  / / /

   H         H        H         H
|------------------|-----------------------||
|------------------|----------------------o||
|-<x>-------<x>----|-<x>-------<x>---------||
|-<x>-------<x>----|-<x>-------<x>---------||
|-<x>-------<x>----|-<x>-------<x>--------o||
|-<x>-------<x>----|-<x>-------<x>---------||


  A5   C5A5         B5   A5B5         E5opE5E5open     F5   C5F5G5   D5G5
  Gtr I
   E E E E H         E E E E H        E E E E H         E E E E  E E E E
   | | | |           | | | |          | | | |           | | | |  | | | |
   / / / /           / / / /          / / / /           / / / /  / / / /

  Gtr III
   H       Q   Q     H       Q   Q    H       Q   Q     H        Q   Q
|-12-------8------|-11-------8------|---------7--12--|-13-------10---7---|
|-------------10--|-------------10--|-9--------------|-------------------|
|-----------------|-----------------|----------------|-------------------|
|-----------------|-----------------|----------------|-------------------|
|-----------------|-----------------|----------------|-------------------|
|-----------------|-----------------|----------------|-------------------|


 Pre-Chorus 2
  $$
  F5                                                G5
  Gtr II
   S  E     S  E     E     E     E     S  S  S  S   S E   S E   E   E   E   S S S S
   |  |     |  |     |     |     |     |  |  |  |   | |   | |   |   |   |   | | | |
   /  /     /  /     /     /     /     /  /  /  /   / /   / /   /   /   /   / / / /

  Gtr I
   PM--------------------------------------------------------------------------------
   E     E     E     E     E     E     E     E      E   E   E   E   E   E   E   E
|-------------------------------------------------|---------------------------------|
|-------------------------------------------------|---------------------------------|
|--4-----4-----4-----5-----5-----5-----5-----5----|-7---7---7---5---5---5---4---4---|
|--3-----3-----3-----3-----3-----3-----3-----3----|-5---5---5---5---5---5---5---5---|
|-------------------------------------------------|---------------------------------|
|-------------------------------------------------|---------------------------------|
|
| Gtr IV
|  S  S  S  S  S  S  S  S  S  S  S  S  S  S  S  S   S S S S S S S S S S S S S S S S
|-------------------------------------------------|---------------------------------|
|-10-10-10-10-10-10-10-10-10-10-10-10-10-10-10-10-|-8-8-8-8-8-8-8-8-8-8-8-8-8-8-8-8-|
|-------------------------------------------------|---------------------------------|
|--7--7--7--7--7--7--7--7--7--7--7--7--7--7--7--7-|-5-5-5-5-5-5-5-5-5-5-5-5-5-5-5-5-|
|-------------------------------------------------|---------------------------------|
|-------------------------------------------------|---------------------------------|


  A5                                                G5
   S  E     S  E     E     E     E     S  S  S  S   S E   S E   E   E   E   S S S S
   |  |     |  |     |     |     |     |  |  |  |   | |   | |   |   |   |   | | | |
   /  /     /  /     /     /     /     /  /  /  /   / /   / /   /   /   /   / / / /

 -------------------------------------------------------------------------------|
   E     E     E     E     E     E     E     E      E   E   E   E   E   E   E   E
|-------------------------------------------------|------------------------------------|
|-------------------------------------------------|------------------------------------|
|--4-----4-----4-----5-----5-----5-----5-----5----|-7---7---7---5---5---5---4---4------|
|--3-----3-----3-----3-----3-----3-----3-----3----|-5---5---5---5---5---5---5---5------|
|-------------------------------------------------|------------------------------------|
|-------------------------------------------------|------------------------------------|
|
|  S  S  S  S  S  S  S  S  S  S  S  S  S  S  S  S   S S S S S S S S S S S S S S S S
|-------------------------------------------------|------------------------------------|
|-10-10-10-10-10-10-10-10-10-10-10-10-10-10-10-10-|-8-8-8-8-8-8-8-8-8-8-8-8-8-8-8-8----|
|-------------------------------------------------|------------------------------------|
|--7--7--7--7--7--7--7--7--7--7--7--7--7--7--7--7-|-5-5-5-5-5-5-5-5-5-5-5-5-5-5-5-5----|
|-------------------------------------------------|------------------------------------|
|-------------------------------------------------|------------------------------------|


  F5                                                G5
   S  E     S  E     E     E     E     S  S  S  S   S E   S E   E   E   E   S S S S
   |  |     |  |     |     |     |     |  |  |  |   | |   | |   |   |   |   | | | |
   /  /     /  /     /     /     /     /  /  /  /   / /   / /   /   /   /   / / / /

   PM---------------------------------------------------------------------------|
   E     E     E     E     E     E     E     E      E   E   E   E   E   E   E   E
|-------------------------------------------------|---------------------------------|
|-------------------------------------------------|---------------------------------|
|--4-----4-----4-----5-----5-----5-----5-----5----|-7---7---7---5---5---5---4---4---|
|--3-----3-----3-----3-----3-----3-----3-----3----|-5---5---5---5---5---5---5---5---|
|-------------------------------------------------|---------------------------------|
|-------------------------------------------------|---------------------------------|
|
|  S  S  S  S  S  S  S  S  S  S  S  S  S  S  S  S   S S S S S S S S S S S S S S S S
|-------------------------------------------------|---------------------------------|
|-10-10-10-10-10-10-10-10-10-10-10-10-10-10-10-10-|-8-8-8-8-8-8-8-8-8-8-8-8-8-8-8-8-|
|-------------------------------------------------|---------------------------------|
|--7--7--7--7--7--7--7--7--7--7--7--7--7--7--7--7-|-5-5-5-5-5-5-5-5-5-5-5-5-5-5-5-5-|
|-------------------------------------------------|---------------------------------|
|-------------------------------------------------|---------------------------------|


                                                                                D.S. al Coda
                                                                                D.S. al Coda
  A5                                                G5
   S  E     S  E     E     E     E     S  S  S  S   S E   S  E     E     E     E    S S S S
   |  |     |  |     |     |     |     |  |  |  |   | |   |  |     |     |     |    | | | |
   /  /     /  /     /     /     /     /  /  /  /   / /   /  /     /     /     /    / / / /

   E     E     E     E     E     E     E     E      S S S S  S  S  S  S  S  S  S  S S S S S
|-------------------------------------------------|---------------------------------------------|
|-------------------------------------------------|---------------------------------------------|
|--4-----4-----4-----5-----5-----5-----5-----5----|-x-x-x-x-12-12-12-12-10-10-10-10-9-9-9-9-----|
|--3-----3-----3-----3-----3-----3-----3-----3----|-x-x-x-x--x--x--x--x--x--x--x--x-x-x-x-x-----|
|-------------------------------------------------|-----x-x-10-10-10-10--8--8--8--8-7-7-7-7-----|
|-------------------------------------------------|---------------------------------------------|
|
|  S  S  S  S  S  S  S  S  S  S  S  S  S  S  S  S   S S S S  S  S  S  S  S  S  S  S S S S S
|-------------------------------------------------|---------------------------------------------|
|-10-10-10-10-10-10-10-10-10-10-10-10-10-10-10-10-|---------------------------------------------|
|-------------------------------------------------|-x-x-x-x-12-12-12-12-10-10-10-10-9-9-9-9-----|
|--7--7--7--7--7--7--7--7--7--7--7--7--7--7--7--7-|-x-x-x-x--x--x--x--x--x--x--x--x-x-x-x-x-----|
|-------------------------------------------------|-----x-x-10-10-10-10--8--8--8--8-7-7-7-7-----|
|-------------------------------------------------|---------------------------------------------|


 End of Chorus 2
  &
  F5                G5                A5
  E E E E E E E E   E E E E E E E E   E E E E E E E E
  | | | | | | | |   | | | | | | | |   | | | | | | | |
  / / / / / / / /   / / / / / / / /   / / / / / / / /

  E E E E E E E E   E E E E E E E E   E E E E E E E E
|-----------------|-----------------|-----------------|
|-1-1-1-1-1-1-1-1-|-3-3-3-3-3-3-3-3-|-5-5-5-5-5-5-5-5-|
|-5-5-5-5-5-5-5-5-|-4-4-4-4-4-4-4-4-|-5-5-5-5-5-5-5-5-|
|-3-3-3-3-3-3-3-3-|-5-5-5-5-5-5-5-5-|-7-7-7-7-7-7-7-7-|
|-3-3-3-3-3-3-3-3-|-5-5-5-5-5-5-5-5-|-7-7-7-7-7-7-7-7-|
|-1-1-1-1-1-1-1-1-|-3-3-3-3-3-3-3-3-|-5-5-5-5-5-5-5-5-|
|
| Gtr IV
| W                 W                 W
|-----------------|-----------------|-----------------|
|-----------------|-----------------|-----------------|
|-----------------|-----------------|-----------------|
|-----------------|-----------------|-----------------|
|-----------------|-----------------|-----------------|
|-----------------|-----------------|-----------------|


  G5
  E   E    E     E     E     E    E   E
  |   |    |     |     |     |    |   |
  /   /    /     /     /     /    /   /

  E   E    E     E     E     E    E   E
|------------------------------------------|
|-3---3----3-----3-----3-----3----3---3----|
|-4---4----4-----4-----4-----4----4---4----|
|-5---5----5-----5-----5-----5----5---5----|
|-5---5----5-----5-----5-----5----5---5----|
|-3---3----3-----3-----3-----3----3---3----|
|
| S S S S  S  S  S  S  S  S  S  S S S S S
|------------------------------------------|
|------------------------------------------|
|-x-x-x-x-12-12-12-12-10-10-10-10-9-9-9-9--|
|-x-x-x-x--x--x--x--x--x--x--x--x-x-x-x-x--|
|-----x-x-10-10-10-10--8--8--8--8-7-7-7-7--|
|------------------------------------------|


 Bridge
  D5                A5                D5                A5
  E E E E E E E E   E E E E E E E E   E E E E E E E E   E E E E E E E E
  | | | | | | | |   | | | | | | | |   | | | | | | | |   | | | | | | | |
  / / / / / / / /   / / / / / / / /   / / / / / / / /   / / / / / / / /

  E E E E E E E E   E E E E E E E E   E E E E E E E E   E E E E E E E E
|-----------------|-----------------|-----------------|-----------------|
|-3-3-3-3-3-3-3-3-|-5-5-5-5-5-5-5-5-|-3-3-3-3-3-3-3-3-|-5-5-5-5-5-5-5-5-|
|-2-2-2-2-2-2-2-2-|-5-5-5-5-5-5-5-5-|-2-2-2-2-2-2-2-2-|-5-5-5-5-5-5-5-5-|
|-0-0-0-0-0-0-0-0-|-7-7-7-7-7-7-7-7-|-0-0-0-0-0-0-0-0-|-7-7-7-7-7-7-7-7-|
|-0-0-0-0-0-0-0-0-|-7-7-7-7-7-7-7-7-|-0-0-0-0-0-0-0-0-|-7-7-7-7-7-7-7-7-|
|-----------------|-5-5-5-5-5-5-5-5-|-----------------|-5-5-5-5-5-5-5-5-|


  D5                A5                B5
  E E E E E E E E   E E E E E E E E   E E E E E E E E   E E E E E E E E
  | | | | | | | |   | | | | | | | |   | | | | | | | |   | | | | | | | |
  / / / / / / / /   / / / / / / / /   / / / / / / / /   / / / / / / / /

  E E E E E E E E   E E E E E E E E   E E E E E E E E   E E E E E E E E
|-----------------|-----------------|-----------------|-----------------|
|-3-3-3-3-3-3-3-3-|-5-5-5-5-5-5-5-5-|-4-4-4-4-4-4-4-4-|-4-4-4-4-4-4-4-4-|
|-2-2-2-2-2-2-2-2-|-5-5-5-5-5-5-5-5-|-4-4-4-4-4-4-4-4-|-4-4-4-4-4-4-4-4-|
|-0-0-0-0-0-0-0-0-|-7-7-7-7-7-7-7-7-|-4-4-4-4-4-4-4-4-|-4-4-4-4-4-4-4-4-|
|-0-0-0-0-0-0-0-0-|-7-7-7-7-7-7-7-7-|-2-2-2-2-2-2-2-2-|-2-2-2-2-2-2-2-2-|
|-----------------|-5-5-5-5-5-5-5-5-|-----------------|-----------------|


 Interlude
  N.C.
  Wx4
|--------|
|--------|
|--------|
|--------|
|--------|
|--------|


  N.C.
  Gtr V
   E  E  E  E  E  E  E  E    E  E  E  E  E  E  E  E
|-12-------12-------12----|----11-------11----11----|
|-------13-------13-------|----------13-------------|
|----14-------14-------14-|-14----14-------14----14-|
|-------------------------|-------------------------|
|-------------------------|-------------------------|
|-------------------------|-------------------------|


   E  E  E  E  E  E  E  E   E  E E  E  E  E  E  E
|-------10----10----------|-8---------10----------|
|----12----------12----12-|---10---10----12----12-|
|-13-------13-------13----|------9----------13----|
|-------------------------|-----------------------|
|-------------------------|-----------------------|
|-------------------------|-----------------------|


  N.C.
  Gtr III
   H           Q     Q       H           Q     Q
|-12-----------8----------|-11-----------8----------|
|-------------------10----|-------------------10----|
|-------------------------|-------------------------|
|-------------------------|-------------------------|
|-------------------------|-------------------------|
|-------------------------|-------------------------|
|
| Gtr V
|  E  E  E  E  E  E  E  E    E  E  E  E  E  E  E  E
|-12-------12-------12----|----11-------11----11----|
|-------13-------13-------|----------13-------------|
|----14-------14-------14-|-14----14-------14----14-|
|-------------------------|-------------------------|
|-------------------------|-------------------------|
|-------------------------|-------------------------|


                             D.S.S. al Dbl. Coda
   H           Q     Q       H          Q     Q
|--------------7----12----|-13---------10-----7----|
|--9----------------------|------------------------|
|-------------------------|------------------------|
|-------------------------|------------------------|
|-------------------------|------------------------|
|-------------------------|------------------------|
|
|  E  E  E  E  E  E  E  E    E  E E  E  E  E  E  E
|-------10----10----------|--8---------10----------|
|----12----------12----12-|----10---10----12----12-|
|-13-------13-------13----|-------9----------13----|
|-------------------------|------------------------|
|-------------------------|------------------------|
|-------------------------|------------------------|


 Chorus 3
  &&
  F5                G5                A5                C5
  Gtr II
  E E E E E E E E   E E E E E E E E   E E E E E E E E   E E E E E E E E
  | | | | | | | |   | | | | | | | |   | | | | | | | |   | | | | | | | |
  / / / / / / / /   / / / / / / / /   / / / / / / / /   / / / / / / / /

  Gtr I
  E E E E E E E E   E E E E E E E E   E E E E E E E E   E E E E E E E E
|-----------------|-----------------|-----------------|-----------------|
|-1-1-1-1-1-1-1-1-|-3-3-3-3-3-3-3-3-|-5-5-5-5-5-5-5-5-|-5-5-5-5-5-5-5-5-|
|-5-5-5-5-5-5-5-5-|-4-4-4-4-4-4-4-4-|-5-5-5-5-5-5-5-5-|-5-5-5-5-5-5-5-5-|
|-3-3-3-3-3-3-3-3-|-5-5-5-5-5-5-5-5-|-7-7-7-7-7-7-7-7-|-5-5-5-5-5-5-5-5-|
|-3-3-3-3-3-3-3-3-|-5-5-5-5-5-5-5-5-|-7-7-7-7-7-7-7-7-|-3-3-3-3-3-3-3-3-|
|-1-1-1-1-1-1-1-1-|-3-3-3-3-3-3-3-3-|-5-5-5-5-5-5-5-5-|-----------------|


  F5                G5                A5
  E E E E E E E E   E E E E E E E E   E E E E E E E E
  | | | | | | | |   | | | | | | | |   | | | | | | | |
  / / / / / / / /   / / / / / / / /   / / / / / / / /

  E E E E E E E E   E E E E E E E E   E E E E E E E E
|-----------------|-----------------|-----------------|
|-1-1-1-1-1-1-1-1-|-3-3-3-3-3-3-3-3-|-5-5-5-5-5-5-5-5-|
|-5-5-5-5-5-5-5-5-|-4-4-4-4-4-4-4-4-|-5-5-5-5-5-5-5-5-|
|-3-3-3-3-3-3-3-3-|-5-5-5-5-5-5-5-5-|-7-7-7-7-7-7-7-7-|
|-3-3-3-3-3-3-3-3-|-5-5-5-5-5-5-5-5-|-7-7-7-7-7-7-7-7-|
|-1-1-1-1-1-1-1-1-|-3-3-3-3-3-3-3-3-|-5-5-5-5-5-5-5-5-|
|
| Gtr IV
| W                 W                 W
|-----------------|-----------------|-----------------|
|-----------------|-----------------|-----------------|
|-----------------|-----------------|-----------------|
|-----------------|-----------------|-----------------|
|-----------------|-----------------|-----------------|
|-----------------|-----------------|-----------------|


  G5
  E   E    E     E     E     E    E   E
  |   |    |     |     |     |    |   |
  /   /    /     /     /     /    /   /

  E   E    E     E     E     E    E   E
|------------------------------------------|
|-3---3----3-----3-----3-----3----3---3----|
|-4---4----4-----4-----4-----4----4---4----|
|-5---5----5-----5-----5-----5----5---5----|
|-5---5----5-----5-----5-----5----5---5----|
|-3---3----3-----3-----3-----3----3---3----|
|
| S S S S  S  S  S  S  S  S  S  S S S S S
|------------------------------------------|
|------------------------------------------|
|-x-x-x-x-12-12-12-12-10-10-10-10-9-9-9-9--|
|-x-x-x-x--x--x--x--x--x--x--x--x-x-x-x-x--|
|-----x-x-10-10-10-10--8--8--8--8-7-7-7-7--|
|------------------------------------------|


 Bridge
  D5                A5                D5                A5
  E E E E E E E E   E E E E E E E E   E E E E E E E E   E E E E E E E E
  | | | | | | | |   | | | | | | | |   | | | | | | | |   | | | | | | | |
  / / / / / / / /   / / / / / / / /   / / / / / / / /   / / / / / / / /

  E E E E E E E E   E E E E E E E E   E E E E E E E E   E E E E E E E E
|-----------------|-----------------|-----------------|-----------------|
|-3-3-3-3-3-3-3-3-|-5-5-5-5-5-5-5-5-|-3-3-3-3-3-3-3-3-|-5-5-5-5-5-5-5-5-|
|-2-2-2-2-2-2-2-2-|-5-5-5-5-5-5-5-5-|-2-2-2-2-2-2-2-2-|-5-5-5-5-5-5-5-5-|
|-0-0-0-0-0-0-0-0-|-7-7-7-7-7-7-7-7-|-0-0-0-0-0-0-0-0-|-7-7-7-7-7-7-7-7-|
|-0-0-0-0-0-0-0-0-|-7-7-7-7-7-7-7-7-|-0-0-0-0-0-0-0-0-|-7-7-7-7-7-7-7-7-|
|-----------------|-5-5-5-5-5-5-5-5-|-----------------|-5-5-5-5-5-5-5-5-|


  D5                A5                B5
  E E E E E E E E   E E E E E E E E   E E E E E E E E   E E E E E E E E
  | | | | | | | |   | | | | | | | |   | | | | | | | |   | | | | | | | |
  / / / / / / / /   / / / / / / / /   / / / / / / / /   / / / / / / / /

  E E E E E E E E   E E E E E E E E   E E E E E E E E   E E E E E E E E
|-----------------|-----------------|-----------------|-----------------|
|-3-3-3-3-3-3-3-3-|-5-5-5-5-5-5-5-5-|-4-4-4-4-4-4-4-4-|-4-4-4-4-4-4-4-4-|
|-2-2-2-2-2-2-2-2-|-5-5-5-5-5-5-5-5-|-4-4-4-4-4-4-4-4-|-4-4-4-4-4-4-4-4-|
|-0-0-0-0-0-0-0-0-|-7-7-7-7-7-7-7-7-|-4-4-4-4-4-4-4-4-|-4-4-4-4-4-4-4-4-|
|-0-0-0-0-0-0-0-0-|-7-7-7-7-7-7-7-7-|-2-2-2-2-2-2-2-2-|-2-2-2-2-2-2-2-2-|
|-----------------|-5-5-5-5-5-5-5-5-|-----------------|-----------------|


  A5   C5A5       A5   C5A5       A5   C5A5       A5   C5A5
   E E E E H       E E E E H       E E E E H       E E E E   H
   | | | |         | | | |         | | | |         | | | |
   / / / /         / / / /         / / / /         / / / /

   TP              TP              TP              TP
   W               W               W               H        +E   Q  E
|---------------|---------------|---------------|---------------------*|
|-17------------|-16------------|-15------------|-13-------(13)\------*|
|---------------|---------------|---------------|---------------------*|
|---------------|---------------|---------------|---------------------*|
|---------------|---------------|---------------|---------------------*|
|---------------|---------------|---------------|---------------------*|


Duration Legend
---------------
W - whole; H - half; Q - quarter; E - 8th; S - 16th; T - 32nd; X - 64th; a - acciaccatura
+ - note tied to previous; . - note dotted; .. - note double dotted
Uncapitalized letters represent notes that are staccato (1/2 duration)
Irregular groupings are notated above the duration line
Duration letters will always appear directly above the note/fret number it represents the
duration for.  Duration letters with no fret number below them represent rests.  Multi-
bar rests are notated in the form Wxn, where n is the number of bars to rest for.  Low
melody durations appear below the staff

Tablature Legend
----------------
 h   - hammer-on
 p   - pull-off
 b   - bend
 pb  - pre-bend
 r   - bend release (if no number after the r, then release immediately)
 /\  - slide into or out of (from/to "nowhere")
 s   - legato slide
 S   - shift slide
<n>  - natural harmonic
[n]  - artificial harmonic
n(n) - tapped harmonic
 ~   - vibrato
 tr  - trill
 T   - tap
 TP  - trem. picking
 PM  - palm muting
\n/  - tremolo bar dip; n = amount to dip
 \n  - tremolo bar down
 n/  - tremolo bar up
/n\  - tremolo bar inverted dip
 =   - hold bend; also acts as connecting device for hammers/pulls
 <>  - volume swell (louder/softer)
 x   - on rhythm slash represents muted slash
 o   - on rhythm slash represents single note slash

Misc Legend
-----------
 |  - bar
||  - double bar
||o - repeat start
o|| - repeat end
*|  - double bar (ending)
 :  - bar (freetime)
 $  - Segno
 &  - Coda
Tempo markers - <E/E./Q/Q./H/H.> = BPM(8/16=s8/s16), where s8 = swing 8ths, s16 = swing 16ths





Comments


Popular Muse tabs & chords
Dark Shines 5 Bass Tabs
Interlude 2 Bass Tabs
Mk Ultra 4 Bass Tabs
Feeling Good 2 Chords
I Belong To You 2 Chords
Bedroom Acoustics Tabs
Host Tabs
Madness 4 Tabs
Map Of The Problematique 2 Tabs
Dust In The Wind Ukulele


Song lyrics



↑ Back to top | Tablatures and chords are parodies/interpretations of the original songs. You may use it for private study, scholarship, research or language learning purposes only
© 2014 AZChords.com Contact us | Privacy policy | DMCA | Add/correct tabs | Request tabs | Top 50 tabs