» » »

Muse, Madness Bass tabs (ver.1)

Artists:  A B C D E F G H I J K L M N O P Q R S T U V W X Y Z # 

Madness Bass tabs (ver.1)

Muse Tabs
 Rating:
4/5 (4 votes)
Madness lessons Tabs too difficult? Try these video lessons and learn fast
1
                Band: Muse
Bassist: Chris Wolstenholme
Tuning: Standard

Chris plays this song on Misa Digital Kitara.

Intro:

G|-------------------------|
D|8-8-8-8-8-8-8-8----------|
A|-------------------------| 
E|----------------6--6--6--| x4

Verse:

G|-------------------------|    |---------------|----------------| 
D|8-8-8-8-8-8-8-8----------|    |---------------|----------------| 
A|-------------------------|    |6--6--6--6--5--|6--6--6--6--5-6-| 
E|----------------6--6--6--| x4 |---------------|----------------| 

G|-------------------------|    |---------------|----------------| 
D|8-8-8-8-8-8-8-8----------|    |---------------|----------------| 
A|-------------------------|    |6--6--6--6--5--|6--6--6--6--5-6-| 
E|----------------6--6--6--| x6 |---------------|----------------| 

G|-------------------------|
D|8-8-8-8-8-8-8-8----------|
A|-------------------------|
E|----------------6--6--6--| x2

Chorus:

G|------------------------------|--------------------| |
D|------------------------------|--------------------| |
A|10--1010--1010--1010--1010-10-|8--88--88--88--88-8-| |
E|------------------------------|--------------------| |
                                                       | x2
G|---------------|----------------|                    |
D|---------------|----------------|                    |
A|6--6--6--6--5--|6--6--6--6--5-6-|                    |
E|---------------|----------------|                    |

Bridge and Verse:

G|-------------------------|    |---------------|----------------| 
D|8-8-8-8-8-8-8-8----------|    |---------------|----------------| 
A|-------------------------|    |6--6--6--6--5--|6--6--6--6--5-6-| 
E|----------------6--6--6--| x8 |---------------|----------------| 

G|-------------------------|    |---------------|----------------| 
D|8-8-8-8-8-8-8-8----------|    |---------------|----------------| 
A|-------------------------|    |6--6--6--6--5--|6--6--6--6--5-6-| 
E|----------------6--6--6--| x6 |---------------|----------------| 

G|-------------------------|
D|8-8-8-8-8-8-8-8----------|
A|-------------------------|
E|----------------6--6--6--| x2

Chorus:

G|------------------------------|--------------------| |
D|------------------------------|--------------------| |
A|10--1010--1010--1010--1010-10-|8--88--88--88--88-8-| |
E|------------------------------|--------------------| |
                                                       | x2
G|---------------|----------------|                    |
D|---------------|----------------|                    |
A|6--6--6--6--5--|6--6--6--6--5-6-|                    |
E|---------------|----------------|                    |

Bridge and Guitar solo:

G|-------------------------|    |----------------|----------------| 
D|8-8-8-8-8-8-8-8----------|    |----------------|----------------|
A|-------------------------|    |6666666666665555|6666666666665566| 
E|----------------6--6--6--| x8 |----------------|----------------|

G|-------------------------|
D|8-8-8-8-8-8-8-8----------|
A|-------------------------|
E|----------------6--6--6--| x2

Last chorus:

G|---------|--------|----------------|----------------|
D|---------|--------|----------------|----------------|
A|10(x16)--|8(x16)--|6666666666665555|6666666666665566|
E|---------|--------|----------------|----------------| x8

Outro:

G|-------------------------|
D|8-8-8-8-8-8-8-8----------|
A|-------------------------|
E|----------------6--6--6--| x4 
            
Submit corrections

comments powered by Disqus
↑ Back to top | Muse Bass for Madness. Lyrics for acoustic guitar and electric guitar. 1 Tablatures and chords are parodies/interpretations of the original songs. You may use it for private study, scholarship, research or language learning purposes only