» » »

Muse, Hysteria Tabs (ver.6)

Artists:  A B C D E F G H I J K L M N O P Q R S T U V W X Y Z # 

Hysteria Tabs (ver.6)

Muse Tabs
Rating:
0/5 (0 votes)
Hysteria lessons Tabs too difficult? Try these video lessons and learn fast
                0% correct, please rate it
Play drop D-tuned with medium distortion
intro
To play this properly, scratch the string with the side of the plectrum

e/---------------------------------------------------
b/---------------------------------------------------
g/---------------------------------------------------
d/---------------------------------------------------
a/---------------------------------------------------
d/6xxxxxxxxxx7xxxxxxxxxxxx8xxxxxxxxxx10xxxxxxxxxx22xx

e/-----------------------------------------------------------
b/---------------------12b12-10----------------------12b12-10
g/14--14-14-14-14-14-------------13--13-13-13-13-13----------
d/x---x--x--x--x--x--------------x---x--x--x--x--x-----------
a/12--12-12-12-12-12-------------11--11-11-11-11-11----------
d/-----------------------------------------------------------

e/----------------------------------------------------------
b/--------------------12b12-10----------------12b12-12b12-12
g/10--10-10-10-10-10------------9--9-9-9-9-9----------------
d/-x---x--x--x--x--x------------x--x-x-x-x-x----------------
a/-8---8--8--8--8--8------------7--7-7-7-7-7----------------
d/---------------------------------------------------------- x2

The verse is just bass, at the end before the chorus, this chord is muted

e/-------------------------------
b/-------------------------------
g/-------------------------------
d/-------------------------------
a/7-7-7-7-7-7-7-7-7-7-7-7-7-7-7-7
d/5-5-5-5-5-5-5-5-5-5-5-5-5-5-5-5

for the chorus play this 

e/-------------------------------------------------------
b/-------------------------------------------------------
g/5-5-5-5-5-5---5-5-5-5-5-5-5----------------------------
d/5-5-5-5-5-5---5-5-5-5-5-5-5-5-5-5-5-5-5---5-5-5-5-5-5-5
a/3-3-3-3-3-3-3-3-3-3-3-3-3-3-5-5-5-5-5-5---5-5-5-5-5-5-5
d/----------------------------3-3-3-3-3-3-3-3-3-3-3-3-3-3

e/-------------------------------------------------------
b/-------------------------------------------------------
g/7-7-7-7-7-7---7-7-7-7-7-7-7----------------------------
d/7-7-7-7-7-7---7-7-7-7-7-7-7-7-7-7-7-7-7---7-7-7-7-7-7-7
a/5-5-5-5-5-5-5-5-5-5-5-5-5-5-7-7-7-7-7-7---7-7-7-7-7-7-7
d/----------------------------5-5-5-5-5-5-5-5-5-5-5-5-5-5 x2

then play this leading to the verse play this 

e/-----------------------------------------------------------
b/---------------------12b12-10----------------------12b12-10
g/14--14-14-14-14-14-------------13--13-13-13-13-13----------
d/x---x--x--x--x--x--------------x---x--x--x--x--x-----------
a/12--12-12-12-12-12-------------11--11-11-11-11-11----------
d/-----------------------------------------------------------

e/----------------------------------------------------------
b/--------------------12b12-10----------------12b12-12b12-12
g/10--10-10-10-10-10------------9--9-9-9-9-9----------------
d/-x---x--x--x--x--x------------x--x-x-x-x-x----------------
a/-8---8--8--8--8--8------------7--7-7-7-7-7----------------
d/---------------------------------------------------------- x1

for chorus number 2 play this

e/-------------------------------------------------------
b/-------------------------------------------------------
g/5-5-5-5-5-5---5-5-5-5-5-5-5----------------------------
d/5-5-5-5-5-5---5-5-5-5-5-5-5-5-5-5-5-5-5---5-5-5-5-5-5-5
a/3-3-3-3-3-3-3-3-3-3-3-3-3-3-5-5-5-5-5-5---5-5-5-5-5-5-5
d/----------------------------3-3-3-3-3-3-3-3-3-3-3-3-3-3

e/-------------------------------------------------------
b/-------------------------------------------------------
g/7-7-7-7-7-7---7-7-7-7-7-7-7----------------------------
d/7-7-7-7-7-7---7-7-7-7-7-7-7-7-7-7-7-7-7---7-7-7-7-7-7-7
a/5-5-5-5-5-5-5-5-5-5-5-5-5-5-7-7-7-7-7-7---7-7-7-7-7-7-7
d/----------------------------5-5-5-5-5-5-5-5-5-5-5-5-5-5 x2

leading to the riff play this

e/--------------------------------------
b/--------------------------------------
g/--------------------------------------
d/--------------------------------------
a/--------------------------------------
d/0-0-10-0-10-12-0-10-0-10-9-0-9-8-0-8-7

e/-------------------------------------
b/-------------------------------------
g/-------------------------------------
d/-------------------------------------
a/-------------------------------------
d/-0-10-0-10-12-0-10-0-10-9-0-9-8-0-8-7

e/-------------------------------------
b/-------------------------------------
g/-------------------------------------
d/-------------------------------------
a/-------------------------------------
d/-0-10-0-10-12-0-10-0-10-9-0-9-8-0-8-7

e/----------------------------------------
b/----------------------------------------
g/----------------------------------------
d/----------------------------------------
a/----------------------------------------
d/-0-10-0-10-12-0-15-0-12-0-15-15-12-15-17

and for the riff play this using delay

e/------12-12-------13-13------13-13-12-12----12
b/----------------------------------------------
g/14-14-------14-14-------14-14------------14---
d/----------------------------------------------
a/----------------------------------------------
d/----------------------------------------------

e/------12-12-------13-13------13-13-12-12----12
b/----------------------------------------------
g/13-13-------13-13-------13-13------------13---
d/----------------------------------------------
a/----------------------------------------------
d/----------------------------------------------


e/------13-13-------17-17------13-13-------12-12-------12-12-------13-13
b/----------------------------------------------------------------------
g/14-14-------14-14-------14-14------14-14-------14-14-------14-14------
d/----------------------------------------------------------------------
a/----------------------------------------------------------------------
d/----------------------------------------------------------------------

e/------13-13-12-12----12
b/-----------------------
g/14-14------------14----
d/-----------------------
a/-----------------------
d/-----------------------


e/------12-12-------13-13------13-13-12-12----12
b/----------------------------------------------
g/14-14-------14-14-------14-14------------14---
d/----------------------------------------------
a/----------------------------------------------
d/----------------------------------------------

e/------12-12-------13-13------13-13-12-12----12
b/----------------------------------------------
g/13-13-------13-13-------13-13------------13---
d/----------------------------------------------
a/----------------------------------------------
d/----------------------------------------------

e/------13-13-------17-17------13-13-------12-0-
b/----------------------------------------------
g/14-14-------14-14-------14-14------14-14------
d/----------------------------------------------
a/----------------------------------------------
d/----------------------------------------------

e/12----------------------------------------------
b/------------15----------13----------12----------
g/---14-14-14-------------------------------------
d/---------------15-15-15----14-14-14----12-12-12-
a/------------------------------------------------
d/------------------------------------------------

(part 2)

e/-----------------------------------------------------------------
b/-13-------13-12-----12-------12-12-13-15-------15-13-12-13-------
g/----12----------14-----12----------------14----------------14----
d/-------14-----------------12----------------15----------------14-
a/------------------------------------------------------------------
d/------------------------------------------------------------------

e/------------------------------------------------------------------------
b/-15-13-12-13-------12b12-10-12--------12-12-13b----15-15-13-12-13-------
g/-------------12----------------12---------------------------------14----
d/----------------14----------------12------------14-------------------14-
a/------------------------------------------------------------------------
d/------------------------------------------------------------------------

for the last chorus play this

e/-------------------------------------------------------
b/-------------------------------------------------------
g/5-5-5-5-5-5---5-5-5-5-5-5-5----------------------------
d/5-5-5-5-5-5---5-5-5-5-5-5-5-5-5-5-5-5-5---5-5-5-5-5-5-5
a/3-3-3-3-3-3-3-3-3-3-3-3-3-3-5-5-5-5-5-5---5-5-5-5-5-5-5
d/----------------------------3-3-3-3-3-3-3-3-3-3-3-3-3-3

e/-------------------------------------------------------
b/-------------------------------------------------------
g/7-7-7-7-7-7---7-7-7-7-7-7-7----------------------------
d/7-7-7-7-7-7---7-7-7-7-7-7-7-7-7-7-7-7-7---7-7-7-7-7-7-7
a/5-5-5-5-5-5-5-5-5-5-5-5-5-5-7-7-7-7-7-7---7-7-7-7-7-7-7
d/----------------------------5-5-5-5-5-5-5-5-5-5-5-5-5-5 x2

for the outro play this

e/--------------------------------------
b/--------------------------------------
g/--------------------------------------
d/--------------------------------------
a/--------------------------------------
d/0-0-10-0-10-12-0-10-0-10-9-0-9-8-0-8-7

e/-------------------------------------
b/-------------------------------------
g/-------------------------------------
d/-------------------------------------
a/-------------------------------------
d/-0-10-0-10-12-0-10-0-10-9-0-9-8-0-8-7

e/-------------------------------------
b/-------------------------------------
g/-------------------------------------
d/-------------------------------------
a/-------------------------------------
d/-0-10-0-10-12-0-10-0-10-9-0-9-8-0-8-7

e/-------------------------------------
b/-------------------------------------
g/-------------------------------------
d/-------------------------------------
a/-------------------------------------
d/-0-10-0-10-12-0-10-0-10-9-0-9-8-0-8-7

e/-------------------------------------
b/-------------------------------------
g/-------------------------------------
d/-------------------------------------
a/-------------------------------------
d/-0-10-0-10-12-0-10-0-10-9-0-9-8-0-8-7

e/---------------------------------------
b/---------------------------------------
g/---------------------------------------
d/---------------------------------------
a/---------------------------------------
d/-0-10-0-10-12-0-10-0-10-9-0-9-8-0-8-7\0

Notation

--\-- Slide
--b-- bend string

chords

e/----------
b/----------
g/5-----7---
d/5--5--7--7
a/3--5--5--7
d/---3-----5

try my best to help you.
            
Submit corrections

comments powered by Disqus
↑ Back to top | Muse Tabs for Hysteria. Lyrics for acoustic guitar and electric guitar. Tablatures and chords are parodies/interpretations of the original songs. You may use it for private study, scholarship, research or language learning purposes only