» » »

Muse, Fllaing Down Main Riffs Tabs (ver.1)

Artists:  A B C D E F G H I J K L M N O P Q R S T U V W X Y Z # 

Fllaing Down Main Riffs Tabs (ver.1)

Muse Tabs
Rating:
0/5 (0 votes)
Fllaing Down Main Riffs lessons Tabs too difficult? Try these video lessons and learn fast
                -------------------------------0----------------------------------0-----0-----
-------------------------3-------3-----3------------------2-2-----0---0---0---
-6---6---6----6/7/6--------2-------2---2----4/5/4-2---2---2---2---1-1---------
-7-7---7-5----------5--4-----4-------4-3--3---------4---4-2-----2-2-----------
-7-------7--7-------7-------------------------------------0-------2-----------


-----------0------------------------------------------------------------------
-----3-------3---2------------------------------------------------------------
-1-----2-------2-2------------------------------------------------------------
---0-----0-------2------------------------------------------------------------
-----------------0------------------------------------------------------------


-2-2-2-2-2-2--1-1-1-1-1-1--0-0-0-0-0-0--4-4-4-4-4-4--5-5-5-5-5-5--6-6-6-6-6---
-2-2-2-2-2-2--1-1-1-1-1-1--2-2-2-2-2-2--6-6-6-6-6-6--7-7-7-7-7-7--8-8-8-8-8---
-2-2-2-2-2-2--2-2-2-2-2-2--2-2-2-2-2-2--6-6-6-6-6-6--7-7-7-7-7-7--8-8-8-8-8---
-4-4-4-4-4-4--3-3-3-3-3-3--2-2-2-2-2-2--6-6-6-6-6-6--7-7-7-7-7-7--8-8-8-8-8---
-4-4-4-4-4-4--3-3-3-3-3-3--0-0-0-0-0-0--4-4-4-4-4-4--5-5-5-5-5-5--6-6-6-6-6---
-2-2-2-2-2-2--1-1-1-1-1-1---------------4-4-4-4-4-4--5-5-5-5-5-5--6-6-6-6-6---


-6-7-7-7-7-7-7-7--------------------------------------------------------------
-8-9-9-9-9-9-9-9--------------------------------------------------------------
-8-9-9-9-9-9-9-9--------------------------------------------------------------
-8-9-9-9-9-9-9-9--------------------------------------------------------------
-6-7-7-7-7-7-7-7--------------------------------------------------------------
-6-7-7-7-7-7-7-7--------------------------------------------------------------
            

comments powered by Disqus
↑ Back to top | Muse Tabs for Fllaing Down Main Riffs. Lyrics for acoustic guitar and electric guitar. Tablatures and chords are parodies/interpretations of the original songs. You may use it for private study, scholarship, research or language learning purposes only