» » »

Muse, Execution Commentary Tabs (ver.1)

Artists:  A B C D E F G H I J K L M N O P Q R S T U V W X Y Z # 

Execution Commentary Tabs (ver.1)

Muse Tabs
Rating:
0/5 (0 votes)
Execution Commentary lessons Tabs too difficult? Try these video lessons and learn fast
                This is a b-side of one of the plug in baby singles
This songs in drop-D 

Bass at the beginning
|-------------------------------|
|-------------------------------|
|-------------------------------|
|-------------------------------|
|-------------------------------|
|--3-2-3-2-3--2-3-2-3-2-3s5-55--|

Verse
|---------------------------|
|---------------------------|
|---------------------------|
|--0-2-0-3-0-0-5-5-7-7-7-7--|
|--0-2-0-3-0-0-5-5-7-7-7-7--|
|--0-2-0-3-0-0-5-0-7-7-7-7--|

Chorus 
|--------------------------------------------------|
|--------------------------------------------------|
|--------------------------------------------------|
|--0-3-0-3-0-xx-5-3--------0-3-0-3-0--x-x-x-x-x-x--|
|--0-3-0-3-0-xx-5-3--------0-3-0-3-0--x-x-x-x-x-x--|
|--0-3-0-3-0-xx-5-3--------0-3-0-3-0--x-x-x-x-x-x--|


|-------------------------------------------------|
|-------------------------------------------------|
|-------------------------------------------------|
|--0-3-0-3-0-xx-5-4-3------0-3-0-3-0-x-x-x-x-x-x--|
|--0-3-0-3-0-xx-5-4-3------0-3-0-3-0-x-x-x-x-x-x--|
|--0-3-0-3-0-xx-5-4-3------0-3-0-3-0-x-x-x-x-x-x--|
            
Submit corrections

comments powered by Disqus
↑ Back to top | Muse Tabs for Execution Commentary. Lyrics for acoustic guitar and electric guitar. Tablatures and chords are parodies/interpretations of the original songs. You may use it for private study, scholarship, research or language learning purposes only