» » »

Mudvayne, Mudvayne Dig Tabs (ver.1)

Artists:  A B C D E F G H I J K L M N O P Q R S T U V W X Y Z # 

Mudvayne Dig Tabs (ver.1)

Mudvayne Tabs
 Rating:
4/5 (4 votes)
Mudvayne Dig lessons Tabs too difficult? Try these video lessons and learn fast
1
                Tuning B F# B E G# C#

Intro

|------------|---|
|------------|---|
|------------|---|
|-0-0---0-0--|-2-|
|-0-0---0-0--|-1-|
|-0-0---0-0--|---|
              *the chord in which the bass plays but you can also play it on guitar
*change to this a few times later
|--------------|
|--------------|
|--------------|
|-0-0---0-0-0--|
|-0-0---0-0-0--|
|-0-0---0-0-0--|

Chorus

|----------------------------------------------------------------------------|
|----------------------------------------------------------------------------|
|----------------------------------------------------------------------------|    
|----------------------------------------------------------------------------|    
|-2/3\2--2p0-0-0-2h3p2-2-2h3p2--2p0-0-0-2h3p2-2-2h3p2--2p0-0-0-2h3p2-2-2h3p2-| 
|-2/3\2--2p0-0-0-2h3p2-2-2h3p2--2p0-0-0-2h3p2-2-2h3p2--2p0-0-0-2h3p2-2-2h3p2-| 

|------|-----|
|------|-----|
|------|-----|
|------|-(2)-|
|-0-0--|-(1)-|
|-0-0--|-----|


Verse

|--------------------------------------------------------------------|
|--------------------------------------------------------------------|
|--------------------------------------------------------------------|
|--------------------------------------------------------------------|    
|-2-2--2p0-0-0-2h3p2-2-2h3p2--2p0-0-0-2h3p2-2-2h3p2--2p0-0-0-2h3p2-2-|
|-2-2--2p0-0-0-2h3p2-2-2h3p2--2p0-0-0-2h3p2-2-2h3p2--2p0-0-0-2h3p2-2-|

|-------------------------------------|
|-------------------------------------|
|-12-12-12-12-12-12-12-12-12-12-12-12-|
|--x--x--x--x--x--x--x--x--x--x--x--x-|
|-10-10-10-10-10-10-10-10-10-10-10-10-|
|-------------------------------------|

Before Bridge

|-------------|
|-------------|
|-------------|
|-------------|
|-0-1-2-5-4-3-|
|-0-1-2-5-4-3-|
  p.m..........

Bridge

|-------|
|-------|
|-------|
|-------|
|-2h3p2-|
|-2h3p2-|x4

|-------------------|
|-------------------|
|-------------------|
|-------------------|
|-2h3p2-x-x-x-x-x-x-|
|-2h3p2-x-x-x-x-x-x-|x4

|---------------------------------------|
|---------------------------------------|
|---------------------------------------|
|---------------------------------------|
|---------------------------------------|
|-2-2-5/6\5--5/6\5--5/6\5--5/6\5--5/6\5-|


|----------------------------------------|
|----------------------------------------|
|----------------------------------------|
|----------------------------------------|
|-2-2--5/6\5--5/6\5--5/6\5--5/6\5--5/6\5-|
|-2-2--5/6\5--5/6\5--5/6\5--5/6\5--5/6\5-|

Outro

|----------------------------------------------------------------------------|
|----------------------------------------------------------------------------|
|----------------------------------------------------------------------------|    
|----------------------------------------------------------------------------|    
|-2/3\2--2p0-0-0-2h3p2-2-2h3p2--2p0-0-0-2h3p2-2-2h3p2--2p0-0-0-2h3p2-2-2h3p2-| 
|-2/3\2--2p0-0-0-2h3p2-2-2h3p2--2p0-0-0-2h3p2-2-2h3p2--2p0-0-0-2h3p2-2-2h3p2-| 

|------|-----|
|------|-----|
|------|-----|
|------|-(2)-|
|-0-0--|-(1)-|
|-0-0--|-----|

|------------------------------------|
|------------------------------------|
|------------------------------------|  
|------------------------------------|  
|-2/3\2--2p0-0-0-2h3p2-2-2h3p2---2-2-|
|-2/3\2--2p0-0-0-2h3p2-2-2h3p2---2-2-| 

|-----------------------|
|-----------------------|
|-----------------------|  
|-----------------------|  
|-2p0-0-0-2h3p2-2-2h3p2-|
|-2p0-0-0-2h3p2-2-2h3p2-| x3

Ends with
|------|-----|
|------|-----|
|------|-----|
|------|-(2)-|
|-0-0--|-(1)-|
|-0-0--|-----|
            
Submit corrections

comments powered by Disqus
↑ Back to top | Mudvayne Tabs for Mudvayne Dig. Lyrics for acoustic guitar and electric guitar. 1 Tablatures and chords are parodies/interpretations of the original songs. You may use it for private study, scholarship, research or language learning purposes only