» » »

Mudvayne, Ipf Tabs (ver.1)

Artists:  A B C D E F G H I J K L M N O P Q R S T U V W X Y Z # 

Ipf Tabs (ver.1)

Mudvayne Tabs
Rating:
0/5 (0 votes)
Ipf lessons Tabs too difficult? Try these video lessons and learn fast
                Internal Primates Forever (IPF)

Tuning:B,F#,B,E,G#,C# (have to use a 7 string b string to sound right)[it sounds ok if you leave all the strings standard except put the b string on]

Intro/Chorus

4|4-1-0-1-0p1-0-0-3p2
5|4-1-0-1-0p1-0-0-3p2
6|4-1-0-1-0p1-0-0-3p2

Verse
3|--7-----7-----7
4|6--0h6-0h6-6

Pre-Bridge(pm)

3|7-7-7-----------------------5-5-6-6
4|-------3-3-3-5-5-5-6-6-6---------

Bridge

3|-7-7-7------------------- 5-5-6-6-7-7-7-5-5-5-4-4-4-2-2-2
4|-7-7-7-3-5-5-5-6-6-6-5-5-6-6-7-7-7-5-5-5-4-4-4-2-2-2-5-5-3-3
5|-5-5-5-3-5-5-5-6-6-6-3-3-4-4-5-5-5-3-3-3-2-2-2-0-0-0-5-5-3-3
6|---------3-5-5-5-6-6-6---------------------------------------------5-5-3-3

Bridge 2

4|-6-5-0-3-5-0-3--6-5-0-3-5
5|-6-5-0-3-5-0-3--6-5-0-3-5
6|-6-5-0-3-5-0-3--6-5-0-3-5

Bridge 2 Interlude

3|12-12/13
4|xx-xx/xx
5|10-10/11

Bridge 2 outro

4|-6-5-0-3-5-0-6-5-0-3-5-0-6-5-0-3-1----1-0-1-2-1-0-1
5|-6-5-0-3-5-0-6-5-0-3-5-0-6-5-0-3-1----1-0-1-2-1-0-1
6|-6-5-0-3-5-0-6-5-0-3-5-0-6-5-0-3-1----1-0-1-2-1-0-1

Fill
3|----------------------------------------10-10-8
4|-4-3-0-7-6-0-3---4-3-0-7-6-0-0-x--x--x
5|-4-3-0-7-6-0-3---4-3-0-7-6-0-0-8--8--6
6|-4-3-0-7-6-0-3---4-3-0-7-6-0-0-----------

Outro

4|-4-1-0-4-1-0
5|-4-1-0-4-1-0
6|-4-1-0-4-1-0
            

comments powered by Disqus
↑ Back to top | Mudvayne Tabs for Ipf. Lyrics for acoustic guitar and electric guitar. Tablatures and chords are parodies/interpretations of the original songs. You may use it for private study, scholarship, research or language learning purposes only