>
 >
Have It Your Way

Have It Your Way Guitar Tabs

Mudvayne - Have It Your Way chords, tabs, tablatures, lyrics

Guitar lessons | Add/correct | Request | Top 50 tabs Artists:  A B C D E F G H I J K L M N O P Q R S T U V W X Y Z 0-9

Have It Your Way Guitar Tabs – Mudvayne

CD, Sheet music, Poster

Do you like Have It Your Way? Share with your friends now
Tabs
ok this is almost 100% accurate, i wrote both the double recording and the main riff 
that greg plays live  (guitar 1 is the main recording, guitar 2 is the high octaves) feel 
to contact me with any comments, suggestions, or corrections.
key:
palm mute- *
vibrato- ~
slide- /
rest- r


guitar 1 (figure 1)

D|--------------------------------------------------------------------|
A|--------------------8/10--------------------------------------------|
F|--------------------x-x--9/10/9-------------------------------------|
C|-10101010-10101010--5/7--x-x--x-------------------------------------|
G|-8-8-8-8--8-8-8-8--------7/8/-7-------------------------------------|
C|-8-8-8-8--8-8-8-8-----------------0-0-0-0-0-0-0-0-10-0-7-0-8-10-7-0-|


guitar 1 (figure 2, comes directly after 1)

D|------------------------------------------------------------------------|
A|--------------------8/10------------------------------------------------|
F|--------------------x-x--9/10/9-9~-7-7-7-7--7-7-7-7---------10-10-10-10-|
C|-10101010-10101010--5/7--x-x--x-x--5-5-5-5--5-5-5-5---------x--x--x--x--|
G|-8-8-8-8--8-8-8-8--------7/8/-7-7~-5-5-5-5--5-5-5-5---------8--8--8--8--|
C|-8-8-8-8--8-8-8-8----------------5-5-5-5--5-5-5-5--0-0-0-0--------------|
                                                     * * * *
(repeat fig 1 & 2 1 more time underneath guitar 2)

guitar 2 (higher octaves)

D|------------------------------------------------------------|
A|-13/10101010-10101010-10101010/13/10101010-101010/1515/1313-|
F|-x-/x-x-x-x--x-x-x-x--x-x-x-x-/x-/x-x-x-x--x-x-x-/x-x-/x-x--|
C|-10/7-7-7-7--7-7-7-7--7-7-7-7-/10/7-7-7-7--7-7-7-/1212/1010-|
G|------------------------------------------------------------|
C|------------------------------------------------------------|

D|-----------------------------------------------------------|
A|-13/10101010-10101010-10101010/13/10101010-101010/15151515-|
F|-x-/x-x-x-x--x-x-x-x--x-x-x-x-/x-/x-x-x-x--x-x-x-/x-x-x-x--|
C|-10/7-7-7-7--7-7-7-7--7-7-7-7-/10/7-7-7-7--7-7-7-/12121212-|
G|-----------------------------------------------------------|
C|-----------------------------------------------------------|

pause, then...

guitar 1, verse
1st time...
D|--------------------------------------------------------------|
A|--------------------------------------------------------------|
F|--------------------------------------------------------------|
C|-10101010--5-5-7-7--------------------------------------------|
G|-8-8-8-8------------7-7-8-7-----------8-8-8-8-7-7-7-7-5-5-5-5-|
C|-8-8-8-8---------------------0-0-0-0--------------------------|
   * * * *   * * * *  * * * *  * * * *  * * * * * * * * * * * *
D|------------------------------------------------------------------|
A|------------------------------------------------------------------|
F|------------------------------------------------------------------|
C|-10101010--5-5-7-7------------------------------------------------|
G|-8-8-8-8------------7-7-8-7-----------7-7-7-7-8-8-8-8-10-10-10-10-|
C|-8-8-8-8---------------------0-0-0-0------------------------------|
   * * * *   * * * *  * * * *  * * * *  * * * * * * * * *  *  *  *
2nd time...
D|--------------------------------------------------------------|
A|--------------------------------------------------------------|
F|--------------------------------------------------------------|
C|-10101010--5-5-7-7--------------------------------------------|
G|-8-8-8-8------------7-7-8-7-----------8-8-8-8-7-7-7-7-5-5-5-5-|
C|-8-8-8-8---------------------0-0-0-0--------------------------|
   * * * *   * * * *  * * * *  * * * *  * * * * * * * * * * * *
D|------------------------------------------------------------------|
A|------------------------------------------------------------------|
F|------------------------------------------------------------------|
C|-10101010--5-5-7-7------------------------------------------------|
G|-8-8-8-8------------7-7-8-7-----------7-7-7-7-8-8-8-8-10-10-10-10-|
C|-8-8-8-8---------------------0-0-0-0------------------------------|
   * * * *   * * * *  * * * *  * * * *  * * * * * * * * *  *  *  *
3rd time, release palm mute on last line...
D|--------------------------------------------------------------|
A|--------------------------------------------------------------|
F|--------------------------------------------------------------|
C|-10101010--5-5-7-7--------------------------------------------|
G|-8-8-8-8------------7-7-8-7-----------8-8-8-8-7-7-7-7-5-5-5-5-|
C|-8-8-8-8---------------------0-0-0-0--------------------------|
   * * * *   * * * *  * * * *  * * * *  * * * * * * * * * * * *
D|------------------------------------------------------------------|
A|------------------------------------------------------------------|
F|------------------------------------------------------------------|
C|-10101010--5-5-7-7------------------------------------------------|
G|-8-8-8-8------------7-7-8-7-----------7-7-7-7-8-8-8-8-10-10-10-10-|
C|-8-8-8-8---------------------0-0-0-0------------------------------|
   * * * *   * * * *  * * * *

chorus, still guitar 1...

D|--------------------------------------------------------------------|
A|--------------------8/10--------------------------------------------|
F|--------------------x-x--9/10/9-------------------------------------|
C|-10101010-10101010--5/7--x-x--x-------------------------------------|
G|-8-8-8-8--8-8-8-8--------7/8/-7-------------------------------------|
C|-8-8-8-8--8-8-8-8-----------------0-0-0-0-0-0-0-0-10-0-7-0-8-10-7-0-|

D|------------------------------------------------------------------------|
A|--------------------8/10------------------------------------------------|
F|--------------------x-x--9/10/9-9~-7-7-7-7--7-7-7-7---------10-10-10-10-|
C|-10101010-10101010--5/7--x-x--x-x--5-5-5-5--5-5-5-5---------x--x--x--x--|
G|-8-8-8-8--8-8-8-8--------7/8/-7-7~-5-5-5-5--5-5-5-5---------8--8--8--8--|
C|-8-8-8-8--8-8-8-8------------------5-5-5-5--5-5-5-5--0-0-0-0------------|
                                                       * * * *
2nd time
D|--------------------------------------------------------------------|
A|--------------------8/10--------------------------------------------|
F|--------------------x-x--9/10/9-------------------------------------|
C|-10101010-10101010--5/7--x-x--x-------------------------------------|
G|-8-8-8-8--8-8-8-8--------7/8/-7-------------------------------------|
C|-8-8-8-8--8-8-8-8-----------------0-0-0-0-0-0-0-0-10-0-7-0-8-10-7-0-|

D|------------------------------------------------------------------------|
A|--------------------8/10------------------------------------------------|
F|--------------------x-x--9/10/9-9~-7-7-7-7--7-7-7-7---------10-10-10-10-|
C|-10101010-10101010--5/7--x-x--x-x--5-5-5-5--5-5-5-5---------x--x--x--x--|
G|-8-8-8-8--8-8-8-8--------7/8/-7-7~-5-5-5-5--5-5-5-5---------8--8--8--8--|
C|-8-8-8-8--8-8-8-8------------------5-5-5-5--5-5-5-5--0-0-0-0------------|
                                                       * * * *
meanwhile, after the 2nd time around on the chorus....

guitar 2 (guitar 1: back to verse)
D|----------------------------------------------------------------------|
A|--13/10101010-8/10101010-8/10101010-13/10101010-8/10101010\8-8-8------|
F|--x-/x-x-x-x--x/x-x-x-x--x/x-x-x-x--x-/x-x-x-x--x/x-x-x-x-\x-x-x------|
C|--10/7-7-7-7--5/7-7-7-7--5/7-7-7-7--10/7-7-7-7--5/7-7-7-7-\5-5-5------|
G|----------------------------------------------------------------------|
C|----------------------------------------------------------------------|

D|--------------------------------------------------------|
A|--13/10101010-8/10101010-8/10101010/15151515\131313-----|
F|--x-/x-x-x-x--x/x-x-x-x--x/x-x-x-x-/x-x-x-x-\x-x-x------|
C|--10/7-7-7-7--5/7-7-7-7--5/7-7-7-7-/12121212\101010-----|
G|--------------------------------------------------------|
C|--------------------------------------------------------|

guitar 1, still on verse
1st time, underneath guitar 2's recording...
D|--------------------------------------------------------------|
A|--------------------------------------------------------------|
F|--------------------------------------------------------------|
C|-10101010--5-5-7-7--------------------------------------------|
G|-8-8-8-8------------7-7-8-7-----------8-8-8-8-7-7-7-7-5-5-5-5-|
C|-8-8-8-8---------------------0-0-0-0--------------------------|
   * * * *   * * * *  * * * *  * * * *  * * * * * * * * * * * *
D|------------------------------------------------------------------|
A|------------------------------------------------------------------|
F|------------------------------------------------------------------|
C|-10101010--5-5-7-7------------------------------------------------|
G|-8-8-8-8------------7-7-8-7-----------7-7-7-7-8-8-8-8-10-10-10-10-|
C|-8-8-8-8---------------------0-0-0-0------------------------------|
   * * * *   * * * *  * * * *  * * * *  * * * * * * * * *  *  *  *
2nd time, no guitar 2
D|--------------------------------------------------------------|
A|--------------------------------------------------------------|
F|--------------------------------------------------------------|
C|-10101010--5-5-7-7--------------------------------------------|
G|-8-8-8-8------------7-7-8-7-----------8-8-8-8-7-7-7-7-5-5-5-5-|
C|-8-8-8-8---------------------0-0-0-0--------------------------|
   * * * *   * * * *  * * * *  * * * *  * * * * * * * * * * * *
D|------------------------------------------------------------------|
A|------------------------------------------------------------------|
F|------------------------------------------------------------------|
C|-10101010--5-5-7-7------------------------------------------------|
G|-8-8-8-8------------7-7-8-7-----------7-7-7-7-8-8-8-8-10-10-10-10-|
C|-8-8-8-8---------------------0-0-0-0------------------------------|
   * * * *   * * * *  * * * *  * * * *  * * * * * * * * *  *  *  *
3rd time, release palm mute on last line...
D|--------------------------------------------------------------|
A|--------------------------------------------------------------|
F|--------------------------------------------------------------|
C|-10101010--5-5-7-7--------------------------------------------|
G|-8-8-8-8------------7-7-8-7-----------8-8-8-8-7-7-7-7-5-5-5-5-|
C|-8-8-8-8---------------------0-0-0-0--------------------------|
   * * * *   * * * *  * * * *  * * * *  * * * * * * * * * * * *
D|------------------------------------------------------------------|
A|------------------------------------------------------------------|
F|------------------------------------------------------------------|
C|-10101010--5-5-7-7------------------------------------------------|
G|-8-8-8-8------------7-7-8-7-----------7-7-7-7-8-8-8-8-10-10-10-10-|
C|-8-8-8-8---------------------0-0-0-0------------------------------|
   * * * *   * * * *  * * * *

guitar 1, 2nd time on chorus

D|--------------------------------------------------------------------|
A|--------------------8/10--------------------------------------------|
F|--------------------x-x--9/10/9-------------------------------------|
C|-10101010-10101010--5/7--x-x--x-------------------------------------|
G|-8-8-8-8--8-8-8-8--------7/8/-7-------------------------------------|
C|-8-8-8-8--8-8-8-8-----------------0-0-0-0-0-0-0-0-10-0-7-0-8-10-7-0-|

D|------------------------------------------------------------------------|
A|--------------------8/10------------------------------------------------|
F|--------------------x-x--9/10/9-9~-7-7-7-7--7-7-7-7---------10-10-10-10-|
C|-10101010-10101010--5/7--x-x--x-x--5-5-5-5--5-5-5-5---------x--x--x--x--|
G|-8-8-8-8--8-8-8-8--------7/8/-7-7~-5-5-5-5--5-5-5-5---------8--8--8--8--|
C|-8-8-8-8--8-8-8-8------------------5-5-5-5--5-5-5-5--0-0-0-0------------|
                                                       * * * *
2nd time
D|--------------------------------------------------------------------|
A|--------------------8/10--------------------------------------------|
F|--------------------x-x--9/10/9-------------------------------------|
C|-10101010-10101010--5/7--x-x--x-------------------------------------|
G|-8-8-8-8--8-8-8-8--------7/8/-7-------------------------------------|
C|-8-8-8-8--8-8-8-8-----------------0-0-0-0-0-0-0-0-10-0-7-0-8-10-7-0-|

D|------------------------------------------------------------------------|
A|--------------------8/10------------------------------------------------|
F|--------------------x-x--9/10/9-9~-7-7-7-7--7-7-7-7---------10-10-10-10-|
C|-10101010-10101010--5/7--x-x--x-x--5-5-5-5--5-5-5-5---------x--x--x--x--|
G|-8-8-8-8--8-8-8-8--------7/8/-7-7~-5-5-5-5--5-5-5-5---------8--8--8--8--|
C|-8-8-8-8--8-8-8-8------------------5-5-5-5--5-5-5-5--0-0-0-0------------|
                                                       * * * *
bridge, guitar 1
D|-----------------------------------------------------|
A|-----------------------------------------------------|
F|-----------------------------------------------------|
C|-----------------------------------------------------|     7x
G|-----------------------------------------------------|
C|--10-10-10-10-10-10-10-10-10-10-10-5-7-7-7-7-7-7-7-7-|

D|-------------------r------------------------------------|
A|-------------------r------------------------------------|
F|-------------------r------------------------------------|
C|-10101010-10101010-r------------------------------------|
G|-8-8-8-8--8-8-8-8--r------------------------------------|
C|-8-8-8-8--8-8-8-8--r--0-0-0-0-0-0-0-0-10-0-7-0-8-10-7-0-|

D|------------------------------------------------------------------------|
A|--------------------8/10------------------------------------------------|
F|--------------------x-x--9/10/9-9~-7-7-7-7--7-7-7-7---------10-10-10-10-|
C|-10101010-10101010--5/7--x-x--x-x--5-5-5-5--5-5-5-5---------x--x--x--x--|
G|-8-8-8-8--8-8-8-8--------7/8/-7-7~-5-5-5-5--5-5-5-5---------8--8--8--8--|
C|-8-8-8-8--8-8-8-8------------------5-5-5-5--5-5-5-5--0-0-0-0------------|
                                                       * * * *
D|--------------------------------------------------------------------|
A|--------------------8/10--------------------------------------------|
F|--------------------x-x--9/10/9-------------------------------------|
C|-10101010-10101010--5/7--x-x--x-------------------------------------|
G|-8-8-8-8--8-8-8-8--------7/8/-7-------------------------------------|
C|-8-8-8-8--8-8-8-8-----------------0-0-0-0-0-0-0-0-10-0-7-0-8-10-7-0-|

D|------------------------------------------------------------------------|
A|--------------------8/10------------------------------------------------|
F|--------------------x-x--9/10/9-9~-7-7-7-7--7-7-7-7---------10-10-10-10-|
C|-10101010-10101010--5/7--x-x--x-x--5-5-5-5--5-5-5-5---------x--x--x--x--|
G|-8-8-8-8--8-8-8-8--------7/8/-7-7~-5-5-5-5--5-5-5-5---------8--8--8--8--|
C|-8-8-8-8--8-8-8-8------------------5-5-5-5--5-5-5-5--0-0-0-0------------|
                                                       * * * *
outro ('bombs, bullets and blood...'), guitar 1 (listen to the song for the strum pattern)
D|--5--5--5-5-5--5-5--5-5--5--5------------------------------|
A|--3--3--3-3-3--3-3--3-3--3--3------------------------------|
F|--2--2--2-2-2--2-2--2-2--2--2--5--5--5-5-5--5-5--5-5--5--5-|
C|--0--0--0-0-0--0-0--0-0--0--0--3--3--3-3-3--3-3--3-3--3--3-|
G|--0--0--0-0-0--0-0--0-0--0--0--3--3--3-3-3--3-3--3-3--3--3-|
C|--0--0--0-0-0--0-0--0-0--0--0--3--3--3-3-3--3-3--3-3--3--3-|

D|--------------------------|
A|--------------------------|
F|--5-5--5--5-5--5-5-5------|
C|--3-3--3--3-3--3-3-3--0---|
G|--3-3--3--3-3--3-3-3--0---|
C|--3-3--3--3-3--3-3-3--0---|

well thats my tab, hope it was helpful in some way

|end|





Comments


Popular Mudvayne tabs & chords
Internal Primates Forever Bass Tabs
Not Falling 3 Bass Tabs
A New GameSolo Tabs
Fall Into Sleep Tabs
Forget To Remeber Tabs
Know Forever 2 Tabs
Nothing To Gain 4 Tabs
Shadow Of A Man 1 Tabs
Solve Et Coagula 2 Tabs
Death Blooms Ukulele


Song lyrics



↑ Back to top | Tablatures and chords are parodies/interpretations of the original songs. You may use it for private study, scholarship, research or language learning purposes only
© 2014 AZChords.com Contact us | Privacy policy | DMCA | Add/correct tabs | Request tabs | Top 50 tabs