>
 >
Fish Out Of Water

Fish Out Of Water Guitar Tabs

Mudvayne - Fish Out Of Water chords, tabs, tablatures, lyrics

Guitar lessons | Add/correct | Request | Top 50 tabs Artists:  A B C D E F G H I J K L M N O P Q R S T U V W X Y Z 0-9

Fish Out Of Water Guitar Tabs – Mudvayne

CD, Sheet music, Poster

Do you like Fish Out Of Water? Share with your friends now
Bass TabsTabs
"Fish Out of Water" - The New Game by Mudvayne

Tuning: Drop-C (C G C F A D)


Intro
part 1
       |------|      |------|          |------|              |----------|
D|----------------------------------------------------------------------|
A|----------------------------------------------------------------------|
F|----------------------------------------------------------------------|
C|-12--12-12-12--12--12-12-12--12--12--12-12-12--12--12--12--12-12-12---|
G|----------------------------------------------------------------------|
C|----------------------------------------------------------------------|

         |------|          |------|              |------|      |--------|
D|----||----------------------------------------------------------------|
A|----||----------------------------------------------------------------|
F|----||----------------------------------------------------------------|
C|-12-||-12-12-12--12--12--12-12-12--12--12--12--12-12-12--12--12-12-12-|
G|----||----------------------------------------------------------------|
C|----||----------------------------------------------------------------|

            |------|              |------|      |------|          |-----|
D|--------|-------------------------------------------------------------|
A|--------|-------------------------------------------------------------|
F|--------|-------------------------------------------------------------|
C|-12--12-|-12-12-12--12--12--12--12-12-12--12--12-12-12--12--12--12-12-|
G|--------|-------------------------------------------------------------|
C|--------|-------------------------------------------------------------|

  --|         2     |------|      |------|          |-------------------|
D|------------|---------------------------------------------------------|
A|------------|------(skip this last section on the second repeat)------|
F|------------|---------------------------------------------------------|
C|-12--12--12-|-12--12-12-12--12--12-12-12--12--12--12-12-12--12--12----|
G|------------|---------------------------------------------------------|
C|------------|---------------------------------------------------------|

       |------|    x2  Intro part 2-------------------------------------|
D|-------------------||-------------------------------------------------|
A|-------------------||-------------------------------------------------|
F|------------------*||-------------------------------------------------|
C|-12--12-12-12--12-*||-------------------------------------------------|
G|-------------------||-6-5-----5---6-5-----5-----------8-5-----5---6-5-|
C|-------------------||-----0-3---0-----0-3---0-3-5-0-------0-3---0-----|


D|-----------------|---------------------------------------------------|
A|-----------------|---------------------------------------------------|
F|-----------------|---------------------------------------------------|
C|---------8-8-7-7-|---------------------------------------------------|
G|-----5---5-5-5-5-|-6-5-----5---6-5-----5-----------8-5-----5---6-5---|
C|-0-3---0---------|-----0-3---0-----0-3---0-3-5-0-------0-3---0-----0-|

Play again under g2
D|---------------||-----------------------------------------------------|
A|---------------||-4-4-4-4-4-4-4-4-4-4-4-4-4-4-4-4-4-4-4-4-4-4-4-4-4-4-|
F|---------------||-7b8-8-8-8-8-8-8-8-8-8-8-8-8-8-8-8r7-7-7-7-7-7-7-7-7-|
C|---------------||-----------------------------------------------------|
G|---5-0-2-3-2-0-||-----------------------------------------------------|
C|-3---0-2-3-2-0-||-----------------------------------------------------|


D|-----------||--------------------------------------------------------|
A|-4-4-4-4-4-||--------------------------------------------------------|
F|-7-7-7-7-7-||--------------------------------------------------------|
C|-----------||--------------------------------------------------------|
G|-----------||--------------------------------------------------------|
C|-----------||--------------------------------------------------------|


Verse - same as intro part 2, sans last part, with palm muting


Chorus

guitar 1
D|----------------------------------------------------------------------|
A|----------------------------------------------------------------------|
F|----------------------------------------------------------------------|
C|----------------------------------------------------------------------|
G|-10-12-0-------10-12-0---10-12-------10-12-10-12-0-------10-12-0---10-|
C|-10-12-0-------10-12-0---10-12-13-12-10-12-10-12-0-------10-12-0---10-|


D|----------------|----------------------------------------------------|
A|----------------|----------------------------------------------------|
F|----------------|----------------------------------------------------|
C|----------------|----------------------------------------------------|
G|-12-------10-12-|----------------------------------------------------|
C|-12-13-12-10-12-|-15-15-15-0-0-0-15-15-15-0-0-0-15-0-15-0-14-14-14-0-|


D|------------------------------||-------------------------------------|
A|------------------------------||-------------------------------------|
F|------------------------------||-------------------------------------|
C|------------------------------||-------------------------------------|
G|------------------------------||-------------------------------------|
C|-0-0-13-13-13-0-0-0-13-0-13-0-||-------------------------------------|


guitar 2
D|----------------------------------------------------------------------|
A|----------------------------------------------------------------------|
F|----------------------------------------------------------------------|
C|----------------------------------------------------------------------|
G|-10-12-0-------10-12-0---10-12-------10-12-10-12-0-------10-12-0---10-|
C|-10-12-0-------10-12-0---10-12-13-12-10-12-10-12-0-------10-12-0---10-|


D|----------------|----------------------------------------------------|
A|----------------|----------------------------------------------------|
F|----------------|----------------------------------------------------|
C|----------------|-10-10-12-10-12-12-10-10-12-10-12-12-10-10-12-12-10-|
G|-12-------10-12-|----------------------------------------------------|
C|-12-13-12-10-12-|----------------------------------------------------|


D|----------------------------------------------||---------------------|
A|----------------------------------------------||---------------------|
F|----------------------------------------------||---------------------|
C|-10-12-10-12-12-10-10-12-10-12-12-10-10-12-12-||---------------------|
G|----------------------------------------------||---------------------|
C|----------------------------------------------||---------------------|


Bridge (both guitars clean)
guitar 3
D||---------------------------------------------------------------|-----|
A||-------------------------------------4-------4-------4-------4-|-----|
F||-----3-------3-------3-------3-----0-------0-------0-------0---|---3-|
C||---1---1---1---1---1---1---1---1-1-------1-------1-------1-----|-0---|
G||-3-------3-------3-------3-------------------------------------|-----|
C||---------------------------------------------------------------|-----|


D|------------------------------------------------------------||-------|
A|-1-------1-------1-------1----------------------------------||-------|
F|-------3-------3-------3---------3-------3-------3-------3-*||-------|
C|-----0-------0-------0---------3-------3-------3-------3---*||-------|
G|-----------------------------0-------0-------0-------0------||-------|
C|------------------------------------------------------------||-------|


guitar 4
D|---------------------------------------------------------------|-----|
A|-4-------------------------------4-----------------------------|-3---|
F|---------------------------------------------------------------|-----|
C|---------------------------------------------------------------|-----|
G|---------------------------------------------------------------|-----|
C|---------------------------------------------------------------|-----|


D|------------------------------------------------------------|--------|
A|------------------------------------------------------------|--------|
F|---------------------3-------3/5----------------------------|--------|
C|-------------------------------------3-------5-------3------|--------|
G|------------------------------------------------------------|--------|
C|------------------------------------------------------------|--------|


D|-------------------------------------------------------|-------------|
A|-------------------6-------8-------------------11------|-8-----------|
F|-------------------------------------------------------|-------------|
C|-------------------------------------------------------|-------------|
G|-------------------------------------------------------|-------------|
C|-------------------------------------------------------|-------------|


D|-----------------------------------------------|---------------------|
A|-----11----------------------------------------|---------------------|
F|--------------10-------------------------------|---------------------|
C|----------------------------------10--------12-|---------------------|
G|-----------------------------------------------|---------------------|
C|-----------------------------------------------|---------------------|


Bridge (2)
guitar 1
D||---------------------------------------------------------------------|
A||---------------------------------------------------------------------|
F||---------------------------------------------------------------------|
C||-----------------------------------------8-8-8-8-8-8-8-8-------------|
G||-10-10-10-10-10-10-10-10-----------------6-6-6-6-6-6-6-6-------------|
C||-10-10-10-10-10-10-10-10-8-7-0-5-7-5-5-3-----------------8-7-0-5-7-5-|


D|-----|---------------------------------------------------------------|
A|-----|---------------------------------------------------------------|
F|-----|---------------------------------------------------------------|
C|-----|-7-7-7-7-7-7-7-7-----------------------------------------------|
G|-----|-5-5-5-5-5-5-5-5-----------------3-3-3-3-3-3-3-3-3-3-3-3-3-3-3-|
C|-5-3-|-----------------8-8-8-8-8-8-8-8-3-3-3-3-3-3-3-3-3-3-3-3-3-3-3-|


D|----||---------------------------------------------------------------|
A|----||---------------------------------------------------------------|
F|---*||---------------------------------------------------------------|
C|---*||---------------------------------------------------------------|
G|-3--||---------------------------------------------------------------|
C|-3--||---------------------------------------------------------------|


guitar 2
D|----------------------------------------------------------------------|
A|----------------------------------------------------------------------|
F|-15-15-15-15-15-15-15-15\12-12-12-12-12-12-12-12----------------------|
C|-------------------------------------------------13-13-13-13-13-13-13-|
G|----------------------------------------------------------------------|
C|----------------------------------------------------------------------|


D|----------------------------|----------------------------------------|
A|----------------------------|-10-10-10-10-10-10-10-10-11-11-11-11-11-|
F|----------------------------|----------------------------------------|
C|-13-12-12-12-12-12-12-12-12-|----------------------------------------|
G|----------------------------|----------------------------------------|
C|----------------------------|----------------------------------------|


D|----------------------------------------------------------|----------|
A|-11-11-11-------------------------------------------------|----------|
F|----------------------------------------------------------|-15-15-15-|
C|----------10-10-10-10-10-10-10-10-10-10-10-10-10-10-10-10-|----------|
G|----------------------------------------------------------|----------|
C|----------------------------------------------------------|----------|


D|----------------------------------------------------------------------|
A|----------------------------------------------------------------------|
F|-15-15-15-15-15\12-12-12-12-12-12-12-12/20-20-20-20-20-20-20-20-19-19-|
C|----------------------------------------------------------------------|
G|----------------------------------------------------------------------|
C|----------------------------------------------------------------------|


D|-------------------|-------------------------------------------------|
A|-------------------|-10-10-10-10-10-10-10-10-11-11-11-11-11-11-11-11-|
F|-19-19-19-19-19-19-|-------------------------------------------------|
C|-------------------|-------------------------------------------------|
G|-------------------|-------------------------------------------------|
C|-------------------|-------------------------------------------------|


D|-------------------------------------------------|-------------------|
A|-------------------------------------------------|-------------------|
F|-12-12-12-12-12-12-12-12-12-12-12-12-12-12-12-12-|-------------------|
C|-------------------------------------------------|-------------------|
G|-------------------------------------------------|-------------------|
C|-------------------------------------------------|-------------------|

Ending
guitar 1
D|---------------------------------------------------------------------|
A|---------------------------------------------------------------------|
F|---------------------------------------------------------------------|
C|---------------------------------------------------------------------|
G|---------------------------------------------------------------------|
C|-10-12-0-------10-12-0-----------------------------------------------|


That's what I hear. The only thing I have not done, to my knowledge, is put everything 
order at the end, as I believe they use the same riffs as earlier in the song. And, of 
the chorus is the same.





Comments


Popular Mudvayne tabs & chords
Cultivate Bass Tabs
Determined 2 Bass Tabs
Mercy, Severity 2 Bass Tabs
Tv Radio Bass Tabs
Choices Intro 1 Tabs
Dig (Everything And Nothing Remix) Tabs
L.D.50 All Word To It Tabs
Not Falling 2 Tabs
Prevail Tabs
Shadow Of A Man Tabs


Song lyrics



↑ Back to top | Tablatures and chords are parodies/interpretations of the original songs. You may use it for private study, scholarship, research or language learning purposes only
© 2014 AZChords.com Contact us | Privacy policy | DMCA | Add/correct tabs | Request tabs | Top 50 tabs