» » »

Dig (Everything And Nothing Remix) Bass

Artists:  A B C D E F G H I J K L M N O P Q R S T U V W X Y Z # 

Dig (Everything And Nothing Remix) Bass

(ver. 1)
Mudvayne Tabs
 Rating:
4/5 (4 votes)
    Dig (Everything And Nothing Remix) lessons Tabs too difficult? Try these video lessons and learn fast
                Sick ass song. Not much different from the original dig, easier actually.
Song tabbed for 5-string bass tuned down to (G,C,G,C,F) just like how Ryknow
does it.

Intro:

F:------| play this every other time Kud yells "DIG!!"
C:------|
G:------|
C:------|
G:--12\-|

Chorus/solo

F:---------------------------------------------------\
C:---------------------------------------------------\
G:---------------------------------------------------\
C:-0-0----3-2-0-2-3-2-0-2-0-0----3-2-0-2-3-2-0-2-0-0-\
G:---------------------------------------------------\

Continued:

F----------------------------(8)-|
C--------------------------------|
G--------------------------------|  parentheses mean don't hold note
C-3-2-0-2-3-2-0-2-0-0----(0)-----|
G---------------------2/---------|
                          s   p
Verse:

F:------------------------(8)xx(7)x-| play this very muted
C:----------------------------------|
G:-5h6x-5h6x------5h6x--x-----------|
C:----------------------------------|
G:----------------------------------|
   s  s  s  s      s    s  p pp p p

That's about it. have fun.
            
Submit corrections

↑ Back to top | Mudvayne Bass for Dig (Everything And Nothing Remix). Lyrics for acoustic guitar and electric guitar. Tablatures and chords are parodies/interpretations of the original songs. You may use it for private study, scholarship, research or language learning purposes only