» » »

Mudvayne, Death Blooms-By Maxx Fiend Tabs (ver.1)

Artists:  A B C D E F G H I J K L M N O P Q R S T U V W X Y Z # 

Death Blooms-By Maxx Fiend Tabs (ver.1)

Mudvayne Tabs
 Rating:
4/5 (4 votes)
Death Blooms-By Maxx Fiend lessons Tabs too difficult? Try these video lessons and learn fast
1
                Tunning: Dropped B (B,F#,B,E,G#,C#)



 Intro   

C#|------------------------------------------|
G#|------------------------------------------|
E |------------------<7>------<7>------<7>---|     
B |-3-2-2-3-2-2-2-2-*<5><7>------<7>------<7>-|
F#|-3-2-2-3-2-2-2-2--------<7>------<7>-------|
B |-3-2-2-3-2-2-2-2--------------------------|

 *(The E<7>'s could be B<5>'s, I'm not sure)


 Riff - 0:12
 
C#|---------------------------------|
G#|---------------------------------|
E |---------------------------------|     
B |-0-7-8-0-7-8-0-7-8-0-5-0-3-5-3-0-|
F#|-0-7-8-0-7-8-0-7-8-0-5-0-3-5-3-0-|
B |-0-7-8-0-7-8-0-7-8-0-5-0-3-5-3-0-|


 Fill - 0:22

C#|-----------------|
G#|-----------------|
E |-----------------|     
B |-3-2-0-2-5-0-2-3-|
F#|-3-2-0-2-5-0-2-3-|
B |-3-2-0-2-5-0-2-3-|


 Verse - 0:24

C#|----------------|
G#|----------------|
E |----------------|     
B |----------------|
F#|-3-------3------|
B |---2-2-----2-2--|


 Bridge - 0:36

C#|---------------------------------|
G#|---------------------------------|
E |---------------------------------|     
B |-3-2-2-3-2-2-3-2-2-3-2-2-3-2-0-2-|
F#|-3-2-2-3-2-2-3-2-2-3-2-2-3-2-0-2-|
B |-3-2-2-3-2-2-3-2-2-3-2-2-3-2-0-2-|

 
 Verse 2 - 1:12

C#|-----------------------------------------|
G#|-----------------------------------------|
E |-----------------------------------------|
B |-0-7-8-0-7-8-0-7-8-0-5-0-2-3-2-0-12---10-|
F#|-0-7-8-0-7-8-0-7-8-0-5-0-2-3-2-0-12---10-|
B |-0-7-8-0-7-8-0-7-8-0-5-0-2-3-2-0-12---10-|


 Break

C#|---|
G#|---|
E |---|    
B |-0-|
F#|-0-|
B |-0-|


 Fast Riff - 1:38

PM      ........  
C#|-----------------------------|
G#|-----------------------------|
E |-----------------------------|     
B |-----------------------------|
F#|-1-----------1---------------|
B |-----2-3-2-0-----0-2-3-2-0---|


 Fast Riff 2 - 1:47

C#|------------------------------------------------|
G#|------------------------------------------------|
E |------------------------------------------------|    
B |-3--2-0-2-0-2-3---2-0-2-0-3--2-0-2-0-2-0-2-3--3-|
F#|-3--2-0-2-0-2-3---2-0-2-0-3--2-0-2-0-2-0-2-3--3-|
B |-3--2-0-2-0-2-3---2-0-2-0-3--2-0-2-0-2-0-2-3--3-|


 Break 2 - 2:12

C#|-----3-|
G#|-7-5-0-|
E |-7-5-0-|     
B |-7-5-0-|
F#|-5-3-2-|
B |-------|


 Thing - 2:14
 
C#|----------------------------3-|
G#|------------------------7-5-0-|
E |------------------------7-5-0-|     
B |-3-2-0-2-0-0-3-0-0------7-5-0-|
F#|-3-2-0-2-0-0-3-0-0------5-3-2-|
B |-3-2-0-2-0-0-3-0-0------------|



 Bridge 2 - 2:27

C#|---------------------|
G#|---------------------|
E |---------------------|     
B |-3-2-0-2-0-0-3-0-0-0-|
F#|-3-2-0-2-0-0-3-0-0-0-|
B |-3-2-0-2-0-0-3-0-0-0-|



 Interlude - 2:36

PM		            ...      ...      ...      ...
C#|-----------------------|--------|--------|--------|--------|---|
G#|-----------------------|--------|--------|--------|--------|---|
E |-----------------------|-----5--|-----10-|-----12-|-----14-|---|
B |-3-2-0-0-2-0-3-0-0-0-0-|-0-0-x--|-0-0--x-|-0-0--x-|-0-0--x-|-0-|
F#|-3-2-0-0-2-0-3-0-0-0-0-|-0-0-3--|-0-0--8-|-0-0-10-|-0-0-12-|-0-|
B |-3-2-0-0-2-0-3-0-0-0-0-|-0-0----|-0-0----|-0-0----|-0-0----|-0-|
			        8X


 Outro - 4:12

PM                   ...
C#|-----------------------------------------------|
G#|-----------------------------------------------|
E |----------------------------5------------------|
B |-0-0--0--0--0--0--3-2-0--0--4--3-2-0-2-5-0-0-0-|
F#|-0-0--0--0--0--0--3-2-0--0--3--3-2-0-2-5-0-0-0-|
B |-0-0--0--0--0--0--3-2-0--0-----3-2-0-2-5-0-0-0-|


C#|--------------------------------------------|
G#|--------------------------------------------|
E |------------------------5-------------------|
B |-0--0--3-0-2-5-0-0-0--0-4---3-2-0-2-5-0-2-3-|
F#|-0--0--3-0-2-5-0-0-0--0-3---3-2-0-2-5-0-2-3-|
B |-0--0--3-0-2-5-0-0-0--0-----3-2-0-2-5-0-2-3-|


PM                   ...
C#|-----------------------------------------------|
G#|-----------------------------------------------|
E |----------------------------5------------------|
B |-0-0--0--0--0--0--3-2-0--0--4--3-2-0-2-5-0-0-0-|
F#|-0-0--0--0--0--0--3-2-0--0--3--3-2-0-2-5-0-0-0-|
B |-0-0--0--0--0--0--3-2-0--0-----3-2-0-2-5-0-0-0-|


C#|---------------------------|
G#|---------------------------|
E |------------------------5~-|
B |-0--0--3-0-2-5-0-0-0--0-4~-| ~Let Ring
F#|-0--0--3-0-2-5-0-0-0--0-3~-|
B |-0--0--3-0-2-5-0-0-0--0----|


Song Structutre:

Intro 4X
Riff 4X
Fill
Verse 4X
Fill
Bridge 4X
Fill
Verse 4X
Fill
Bridge 4X
Verse 2 4X
Break
Fast Riff 4X
Fast Riff 2 3X
Fast Riff 6X
Break 2
Thing 3X
Bridge 2 4X
Interlude
Break
Bridge 8X
Verse 2 8X
Fill
Outro


Lyrics:

Cold seems crippling 
lame meander through corridors 
aroma's thick with age 
mark off the day 

Reflections of my life are fading 
Pull me out of body 
don't want it 
don't want in,
Feeble frail and rotting 
descending 
I'm lost in a structure that's collapsing 
don't want it 
cast into,
Maker take the body 
don't want 
it wants me 

Past has found it's place
salvation is no more 
will god accept my peace 
bleached will pardon me 

Reflections of my life are fading 
Pull me out of body 
don't want it 
don't want in,
Feeble frail and rotting 
descending 
I'm lost in a structure that's collapsing 
don't want it 
cast into,
Maker take the body 
don't want 
it wants me 

I just want to run 
fly kites, wrestle, jump and play 
Swim through waves that crash to shore 
memories in me 
cocooned in misery 

I'm sick 
and tired 
of embracing reflections of past time 
receive me or cast me away 
god please take me away 
resistance 
futile 
suicidal ideas 
I will crucify my own being 
satisfy selfish needs *** the deities 
justify my own right to what's waiting for me 

On the other side 
the time has come 
lock and load 
I'm coming 
I'm coming 
I'm coming 
I'm coming home 

Pull me out of body 
don't want it 
don't want in,
Pull me out of body 
don't want it 
don't want in,
Pull me out of body 
don't want it 
don't want in,
Feeble frail and rotting 
descending 
I'm lost in a structure that's collapsing 
descending 
don't want it,
Maker take the body 
don't want it
don't want in,
Pull me out of body 
don't want it 
don't want in,
Feeble frail and rotting 
descending 
I'm lost in a structure that's collapsing 
descending 
don't want it,
Maker take the body 
don't want 
it wants me 

I just want to run
fly kites, wrestle, jump and play 
Swim through waves that crash to shore 
memories in me 
cocooned in misery 
The darkness overcomes 
soul soars to the other plain 
Existence past the door 
I sail 
through purgatory's bay 

I asked a god for poison cradle me 
sown to my dreams 
souls searching 
death blossoms where clouds lie over me 
held in god's hands 
death blooming

Dark for fear of failure 
an inner gloom as wide as an eye and fermenting 
roiling hate 
death grip in my veins 
unveiling rancid petals 
flowering forth foul nectar 
the space between a blink and a tear 
death blooms.


TooL Rulez! (Dunno why I wrote this tab anyway...)
            
Submit corrections

comments powered by Disqus
↑ Back to top | Mudvayne Tabs for Death Blooms-By Maxx Fiend. Lyrics for acoustic guitar and electric guitar. 1 Tablatures and chords are parodies/interpretations of the original songs. You may use it for private study, scholarship, research or language learning purposes only