>
 >
Beautiful And Strange

Beautiful And Strange Guitar Tabs

Mudvayne - Beautiful And Strange chords, tabs, tablatures, lyrics

Guitar lessons | Add/correct | Request | Top 50 tabs Artists:  A B C D E F G H I J K L M N O P Q R S T U V W X Y Z 0-9

Beautiful And Strange Guitar Tabs – Mudvayne

CD, Sheet music, Poster

Do you like Beautiful And Strange? Share with your friends now
Tabs
Mudvayne: Beautiful And Strange





Tuning: Drop C (C,G,C,F,A,D)

Tab key:
* = palm mute
h = hammer-on
p = pull-off
/ = slide up
\ = slide down
ph=pinched harmonic

Riff 1
D|-------------------------------------------------------|
A|-------------------------------------------------------|
F|-------------------------------------------------------|
C|-------------------------------------------------------|
G|-------------------------------------------------------|
C|-0000000000000000-0h9h10h12-0h9h10h12-0000000000000000-|
   ****************                     ****************

D|------------------------------------------|
A|------------------------------------------|
F|------------------------------------------|
C|------------------------------------------|
G|---------------------9h10h12p10p9---------|
C|-0h9h10h12-0h9h10h12--------------12p10p9-|

Repeat Riff 1 X4, end on:
D|----------------------------|
A|----------------------------|
F|----------------------------|
C|-0--------------------------|
G|-0--------------------------|
C|-0--------------------------|

Riff 2
D|--------------------------------------------------------------------------|
A|--------------------------------------------------------------------------|
F|--------------------------------------------------------------------------|
C|--------------------------------------------------------------------------|
G|-----5------5-3-5-3------5------5-3------5------5-3-5-3------5------5-3-2-|
C|-00000--00000-3-5-0--00000--00000-0--00000--00000-3-5-0--00000--00000-3-2-|
   ****   ****         ****   ****     ****   ****         ****   ****

Riff 3  "So beautiful, and so strange..."
D|---------------------------------------------------|
A|---------------------------------------------------|
F|---------------------------------------------------|
C|---------------------------------------------------|
G|-7-7-7-7--7-7-7-7-8-8-----8-8-8-8--8-8-8-8-8-8-8-8-|
C|-8-8-8-8--8-8-8-8-----3-3-5-5-5-5--5-5-5-5-7-7-7-7-|

D|----------------------------------------------------------|
A|----------------------------------------------------------|
F|----------------------------------------------------------|
C|-2-2-2-2--2-2-2-2-----------------------------------------|
G|------------------7-7-7-7-3-3-3-3-3-3-3-3-5-5-5-5-5-5-5-5-|
C|-3-3-3-3--3-3-3-3-5-5-5-5-2-2-2-2-2-2-2-2-3-3-3-3-3-3-3-3-|

D|---------------------------------------------------|
A|---------------------------------------------------|
F|---------------------------------------------------|
C|---------------------------------------------------|
G|-7-7-7-7--7-7-7-7-8-8-----8-8-8-8--8-8-8-8-8-8-8-8-|
C|-8-8-8-8--8-8-8-8-----3-3-5-5-5-5--5-5-5-5-7-7-7-7-|

D|-------------------------------------------------------------------------|
A|-------------------------------------------------------------------------|
F|-------------------------------------------------------------------------|
C|-------------------------------------------------------------------------|
G|-7-7-7-7-7-7-7-7-7-7-7-7-7-7-7-7-3-3-3-3-3-3-3-3-12-12-12-12-12-12-12-12-|
C|-5-5-5-5-5-5-5-5-5-5-5-5-5-5-5-5-2-2-2-2-2-2-2-2-10-10-10-10-10-10-10-10-|

Play Riff 2
Play Riff 3 X2   "So beautiful, and so strange..."

Riff 4
D|--------------------------------------------------------------------|
A|--------------------------------------------------------------------|
F|--------------------------------------------------------------------|
C|--------------------------------------------------------------------|
G|---12p10---8h10---12p10---8h10---7h8---8p7---5h7---3h5--------------|
C|-0-------0------0-------0------0-----0-----0-----0-----0-8h10-0-5h7-|

D|---------------------------------------------------------------|
A|---------------------------------------------------------------|
F|---------------------------------------------------------------|
C|---------------------------------------------------------------|
G|---12p10---8h10---12p10---8h10---7h8---8p7---5h7---3h5---7-7-7-|
C|-0-------0------0-------0------0-----0-----0-----0-----0---7-7-|

D|--------------------------------------------------------------------|
A|--------------------------------------------------------------------|
F|--------------------------------------------------------------------|
C|--------------------------------------------------------------------|
G|---12p10---8h10---12p10---8h10---7h8---8p7---5h7---3h5--------------|
C|-0-------0------0-------0------0-----0-----0-----0-----0-8h10-0-5h7-|

D|--------------------------------------------------------------------|
A|--------------------------------------------------------------------|
F|--------------------------------------------------------------------|
C|--------------------------------------------------------------------|
G|---12p10---8h10---12p10---8h10---7h8---8p7---5h7---3h5---7h8---8h10-|
C|-0-------0------0-------0------0-----0-----0-----0-----0-----0------|

Riff 5
D|--------------------------------------------------------------------|
A|--------------------------------------------------------------------|
F|--------------------------------------------------------------------|
C|--------------------------------------------------------------------|
G|---12-10---8-10---12-10---8-10---7-8---8-7---5-7---3-5--------------|
C|-0-------0------0-------0------0-----0-----0-----0-----0-8-10-0-5-7-|
   *       *      *       *      *     *     *     *     *      *

D|--------------------------------------------------------------------|
A|--------------------------------------------------------------------|
F|--------------------------------------------------------------------|
C|--------------------------------------------------------------------|
G|---12-10---8-10---12-10---8-10---7-8---8-7---5-7---3-5---7-8---8-10-|
C|-0-------0------0-------0------0-----0-----0-----0-----0-----0------|
   *       *      *       *      *     *     *     *     *     *

Riff 6
D|---------------------------------|
A|---------------------------------|
F|---------------------------------|
C|---------------------------------|
G|---------------------------------|
C|-0-0-0-0-0-0-0-0-9-10-12-9-10-12-|
   * * * * * * * * * *  *  * *  *

D|-------------------------------------------------|
A|-------------------------------------------------|
F|-------------------------------------------------|
C|-------------------------------------------------|
G|---------------------------------12-10-9---------|
C|-0-0-0-0-0-0-0-0-9-10-12-9-10-12---------12-10-9-|
   * * * * * * * * * *  *  * *  *  *  *  * *  *  *

Repeat Riff 6 X4

Riff 7
D|-------------------------------------------------------------|
A|-------------------------------------------------------------|
F|-------------------------------------------------------------|
C|-----------------7-------------------------------------------|
G|-7-7-7-7-7-7-7-----10-8----8-7------8-8-8-8--8-8-8-8-8-8-8-8-|
C|-8-8-8-8-8-8-8-8--------10-----10-3-5-5-5-5--5-5-5-5-7-7-7-7-|

D|-----------------------------------------------------------------|
A|-----------------------------------------------------------------|
F|-----------------------------------------------------------------|
C|-2-2-2-2-2-2-2---3-2-----3-2-------------------------------------|
G|---------------0-----3p0-----3p0-3-3-3-3-3-3-3-3-5-5-5-5-5-5-5-5-|
C|-3-3-3-3-3-3-3-------------------2-2-2-2-2-2-2-2-3-3-3-3-3-3-3-3-|

D|-----------------------------------------------------------------|
A|-----------------------------------------------------------------|
F|-----------------------------------------------------------------|
C|--------------7--------------------------------------------------|
G|-7-7-7-7--------10-8----8-7------8-8-8-8-8-8-8-8-8-8-8-8-8-8-8-8-|
C|-8-8-8-8----8--------10-----10-3-5-5-5-5-5-5-5-5-5-5-5-5-7-7-7-7-|

D|----------------------------------------------------------------------|
A|----------------------------------------------------------------------|
F|----------------------------------------------------------------------|
C|-2-2-2-2------3-2-----3-2---------------------------------------------|
G|------------0-----3p0-----3p0-3-3-3-3-3-3-3-3-12-12-12-12-12-12-12-12-|
C|-3-3-3-3----------------------2-2-2-2-2-2-2-2-10-10-10-10-10-10-10-10-|

Riff 8
D|-----------------------------------------|
A|-----------------------------------------|
F|-----------------12-12-12-12-14-14-14-14-|
C|-----------------------------------------|
G|-7-7-7-7-7-7-7-7-10-10-10-10-12-12-12-12-|
C|-8-8-8-8-8-8-8-8-------------------------|

D|-----------------------------------------|
A|-----------------------------------------|
F|-----------------10-10-10-10-12-12-12-12-|
C|-----------------------------------------|
G|-8-8-8-8-8-8-8-8-8--8--8--8--10-10-10-10-|
C|-5-5-5-5-5-5-5-5-------------------------|

D|-------------------------------------|
A|-------------------------------------|
F|-----------------9-9-9-9-10-10-10-10-|
C|-2-2-2-2-2-2-2-2---------------------|
G|-----------------7-7-7-7-8--8--8--8--|
C|-3-3-3-3-3-3-3-3---------------------|

D|---------------------------------|
A|---------------------------------|
F|---------------------------------|
C|---------------------------------|
G|-3-3-3-3-3-3-3-3-5-5-5-5-5-5-5-5-|
C|-2-2-2-2-2-2-2-2-3-3-3-3-3-3-3-3-|

Repeat first 3 measures of Riff 8:
D|-----------------------------------------|
A|-----------------------------------------|
F|-----------------------------------------|
C|-----------------------------------------|
G|-3-3-3-3-3-3-3-3-12-12-12-12-12-12-12-12-|
C|-2-2-2-2-2-2-2-2-10-10-10-10-10-10-10-10-|

Riff 9
D|--------------------------------------------------------------------|
A|--------------------------------------------------------------------|
F|--------------------------------------------------------------------|
C|--------------------------------------------------------------------|
G|---12p10---8h10---12p10---8h10---7h8---8p7---5h7---3h5--------------|
C|-0-------0------0-------0------0-----0-----0-----0-----0-8h10-0-5h7-|

D|--------------------------------------------------------------------|
A|--------------------------------------------------------------------|
F|--------------------------------------------------------------------|
C|--------------------------------------------------------------------|
G|---12p10---8h10---12p10---8h10---7h8---8p7---5h7---3h5---7h8---8h10-|
C|-0-------0------0-------0------0-----0-----0-----0-----0-----0------|

D|--------------------------------------------------------------------|
A|--------------------------------------------------------------------|
F|--------------------------------------------------------------------|
C|--------------------------------------------------------------------|
G|---12p10---8h10---12p10---8h10---7h8---8p7---5h7---3h5--------------|
C|-0-------0------0-------0------0-----0-----0-----0-----0-8h10-0-5h7-|

D|-----------------------------------------------------|
A|-----------------------------------------------------|
F|-----------------------------------------------------|
C|-----------------------------------------------------|
G|---12p10---8h10---12p10---8h10---7h8---7h8---7h8---7-|
C|-0-------0------0-------0------0-----0-----0-----0---|

cover of this song. Enjoy!





Comments


Popular Mudvayne tabs & chords
A Cinderella Story Bass Tabs
Solve Et Coagula Bass Tabs
A World So Cold Tabs
Cultivate 1 Tabs
Dull Boy Tabs
Mercy Severity 2 Tabs
Mercy Severity 4 Tabs
Mercy, Severity Tabs
Solve Et Coagula Tabs
World So Cold Complete Tabs


Song lyrics



↑ Back to top | Tablatures and chords are parodies/interpretations of the original songs. You may use it for private study, scholarship, research or language learning purposes only
© 2014 AZChords.com Contact us | Privacy policy | DMCA | Add/correct tabs | Request tabs | Top 50 tabs