>
 >
Libra

Libra Guitar Tabs

Mucc - Libra chords, tabs, tablatures, lyrics

Guitar lessons | Add/correct | Request | Top 50 tabs Artists:  A B C D E F G H I J K L M N O P Q R S T U V W X Y Z 0-9

Libra Guitar Tabs – Mucc

CD, Sheet music, Poster

Do you like Libra? Share with your friends now
TabsTabs v2

Intro:
 

guitar 1:

e|-----------------------------------------------------|
B|-----------------------------------------------------|
G|-----------------------------------------------------|
D|-----------------------------------------------------|
A|---------------6h7p6---------------------------------|
E|--6h7---6-7------------6h7---6-7--3-2----------------|


guitar 2:
 
comes in with drums

e|-----------------------------------------------------|
B|-----------------------------------------------------|
G|-----------------------------------------------------|
D|---9-------5---9--------5----------------------------|
A|---9-------5---9--------5----------------------------|
E|---7(x7)---3---7(x7)----3----------------------------|




verse:

guitar 1: 
  
e|-----------------------------------|
B|--7--7--7--7---7--7--7--7----------|
G|--7--6--7--6---7--6--7--6----------|
D|--9------------9-------------------|
A|-----------------------------------|
E|-----------------------------------|



guitar 2:

e|---------------------------------------------------------------------------|
B|--------------------------------------------------------------------12-----|
G|---11--12-11-9-----11-----11----------------------9--11-------------x------|
D|----------------12----11--x----9-8-9-11-12-11-12---------11-12--11--9------|
A|--------------------------9------------------------------------------------|
E|---------------------------------------------------------------------------|



Chorus:

strum these chords

e|-----------------------------------|
B|-----------------------------------|
G|---7---7---4-----------------------|
D|---7---7---4---7---5---7-----------|
A|---5---4---2---7---5---7-----------|
E|---------------5---3---5-----------|



Bridge:

tremolo pick every note

e|------------------------------------------|
B|------------------------------------------|
G|-7--6--9--7----11--9---12---11------------|
D|------------------------------------------|
A|------------------------------------------|
E|------------------------------------------|



ending solo:

e|---------------------------------------------------------------------------|
B|---7-8-7--------------7--8--7-8-10-----------------------------------------|
G|---------9--7--6-7-9----------------9--10----------------------------------|
D|---------------------------------------------------------------------------|
A|---------------------------------------------------------------------------|
E|---------------------------------------------------------------------------|





Comments


Popular Mucc tabs & chords
Horizont Bass Tabs
Kikanetsu Chords
Anjelier Tabs
Bouzenjishitsu Tabs
Dakukuu Tabs
Danzetsu Tabs
Dare Mo Inai Ie Tabs
Zutazuta Tabs
Kagerou Ukulele
Ryuusei Ukulele


Song lyrics



↑ Back to top | Tablatures and chords are parodies/interpretations of the original songs. You may use it for private study, scholarship, research or language learning purposes only
© 2014 AZChords.com Contact us | Privacy policy | DMCA | Add/correct tabs | Request tabs | Top 50 tabs