» » »

Libra Tabs (ver.2)

Artists:  A B C D E F G H I J K L M N O P Q R S T U V W X Y Z # 

Libra Tabs (ver.2)

Mucc
Rating:
0/5 (0 votes)

Hard to play? Try these video lessons and learn fast.
                
this will not be the greatest tab
as I'm too lazy to write every little
detail

this songs main riff requires a low B string
but the rest of the song you can get away with a 6 string

mild distortion
E|-------------------------|-------------------------|
B|-------------------------|-------------------------|
G|-------------------------|-------------------------|
D|-------------------------|-------------------------|
A|--------------------6-7--|-------------------------|
E|----6-7-----6-7----------|----6-7-----6-7----------|
B|-0-----0-0-----0-0-------|--0-----0-0-----0-8-7----|

E|-------------------------|-------------------------|
B|-------------------------|-------------------------|
G|-------------------------|-------------------------|
D|-------------------------|-------------------------|
A|--------------------6-7--|-------------------------|
E|----6-7-----6-7----------|----6-7-----6-7----------|
B|-0-----0-0-----0-0-------|--0-----0-0-----0-8------|


distortion
E|-------------------------|-------------------------|
B|-------------------------|-------------------------|
G|-------------------------|-------------------------|
D|-------------------------|-------------------------|repeat
A|--------------------6-7--|-------------------------|
E|----6-7-----6-7----------|----6-7-----6-7----------|
B|-0-----0-0-----0-0-------|--0-----0-0-----0-8-7----|

I can't quite make out the rhythm part
but mostly it's Bmin chord

E|---2---------------------|
B|---3---------------------|
G|---4---------------------|
D|---4---------------------|repeat
A|-------------------------|
E|-------------------------|
B|-------------------------|

the lead that miya play over that

E|--14-15-14-12-10-14-9-14-|--7-6-7-9-10-12-14-16-17-|
B|-------------------------|
G|-------------------------|
D|-------------------------|
A|-------------------------|
E|-------------------------|
B|-------------------------|

chorus
E|---------------------------------|
B|---------------------------------|
G|---------------------------------|
D|-7--7--4--2----------------------|
A|-5--4--2--0-5-7------------------|
E|------------3-5--7-7-7-7-5-5-5-5-|
B|---------------------------------|
                  please note I might 
                be hearing the bass line here and miya 
                is just holding the A power Chord

I watched the hide memorial summit and heard Miya
playing this during the 2nd Verse
there are some dead notes and hammer offs/one
in between just listen to get the rhythm
E|--7----9-7---------------|
B|--7----7-7---------------|
G|--7----7-7---------------|
D|-------------------------|repeat... then
A|-------------------------|
E|-------------------------|
B|-------------------------|

E|--x---x--x-x-7-----------|
B|--x---x--x-x-7-----------|
G|--x---10-9-x-7-----------|
D|--x----------------------|repeat and such
A|-------------------------|
E|-------------------------|
B|-------------------------|
best advice to play this part right is to listen
to it and just play all jazz like

breakdown
E|-------------------------|please note each not is played
B|-------------------------|more then just once
G|--7-6-9-7-11-9-12-11-----|and is played very fast
D|-------------------------|almost like tremolo chords
A|--5-4-7-5-9--7-10-9------|
E|-------------------------|
B|-------------------------|

second part to breakdown
E|-------------------------|
B|-------------------------|
G|-------------------------|
D|--7-6-9-7-11-9-13-16-15--|
A|-------------------------|
E|--5-4-7-5-9--7-11-14-13--|
B|-------------------------|

the breakdown is played again 
but this time miya plays power chords
unfortunately I don't know what he's playing here
srry but you could just repeat the same tremolo chords
again to fill in the blank

chorus again pretty much the same as the first time

ending solo

E|-------------------------|---------------------------------|
B|-------------------------|---------------------------------|
G|-11-12-11-9-7------------|--6-7-9-11-12---11-12-14-9--10---|
D|-------------------------|---------------------------------|repeat
A|-9--10-9--7-5------------|--4-5-7-9--10---9-10-12--7--8----|
E|-------------------------|---------------------------------|
B|-------------------------|---------------------------------|

end with a Dmaj chord

E|---2---------------------|
B|---3---------------------|
G|---2---------------------|
D|---0---------------------|
A|---0---------------------|
E|-------------------------|
B|-------------------------|
            
Hard to play? Try these video lessons and learn fast. | Correct




comments powered by Disqus
↑ Back to top | Tablatures and chords are parodies/interpretations of the original songs. You may use it for private study, scholarship, research or language learning purposes only