» » »

Moving Units, Emancipation Tabs (ver.3)

Artists:  A B C D E F G H I J K L M N O P Q R S T U V W X Y Z # 

Emancipation Tabs (ver.3)

Moving Units Tabs
Rating:
0/5 (0 votes)
Hard to play? Try these video lessons and learn fast.
                Emancipation
Moving Units
Dangerous Dreams

Intro and Chorus, repeat as needed
E|--0-----0-----1---------|
B|----1-----1-----1---1--1|
G|2------1-----0----0--1--|
D|------------------------|
A|------------------------|
E|------------------------|

Pre-verse, as soon as intro is done
E|-9910--x-55-x-54-x-55-x-6666---x-55-x-54-x-5/12-12-12\|
B|-9910--x-55-x-54-x-55-x-6666---x-55-x-54-x-5/12-12-12\|
G|-------x-55-x-54-x-55-x-6666---x-55-x-54-x-5/12-12-12\|x2
D|------------------------------------------------------|
A|------------------------------------------------------|
E|------------------------------------------------------|

Post Chorus "i am your slave"
E|----------1-0-000000-------------1-0-000-3345-|
B|------1-0-----------33-------1-0---------3345-|
G|2-2-0------------------2-2-0------------------|
D|----------------------------------------------|
A|----------------------------------------------|
E|----------------------------------------------|

E|----------1-0-000000-------------1-0-000------|
B|------1-0-----------33-------1-0---------3-1-0|
G|2-2-0------------------2-2-0------------------|
D|----------------------------------------------|
A|----------------------------------------------|
E|----------------------------------------------|


Solo thingy
E|------4^4^3-------4^4^3------4^4^3------4^32-|
B|---------------------------------------------|
G|2-2-0-------2-2-0-------2-2-0------2-2-0-----|
D|---------------------------------------------|
A|---------------------------------------------|
E|---------------------------------------------|

E|------4^4^3-------4^4^3------4^4^3------345--|
B|----------------------------------------345--|
G|2-2-0-------2-2-0-------2-2-0------2-2-0-----|
D|---------------------------------------------|
A|---------------------------------------------|
E|---------------------------------------------|
            

comments powered by Disqus
↑ Back to top | Moving Units Tabs for Emancipation. Lyrics for acoustic guitar and electric guitar. Tablatures and chords are parodies/interpretations of the original songs. You may use it for private study, scholarship, research or language learning purposes only