» » »

Emancipation Bass tabs (ver.1)

Artists:  A B C D E F G H I J K L M N O P Q R S T U V W X Y Z # 

Emancipation Bass tabs (ver.1)

Moving Units
Rating:
0/5 (0 votes)

Hard to play? Try these video lessons and learn fast.
                Album:Dangerous Dreams

Verse
G|---------------------------------------------------|
D|-------------------7---------------------10--------|
A|------------7-------------7------10-------------10-|
E|--12\---5-5--5-5-5--5-5-5--5-8-8---8-8-8---8-8-8---|

Chorus(I'm Your Slave)
G|-----------------------|
D|-----------------------|
A|------------------3----|
E|----5-5-4-4-3-3-3---3--|

Chorus(You Control Me)
G|----------------5---|
D|---7-7-6-6-5-5-5-5--|
A|--------------------|
E|--5-5-4-4-3-3-------|

Thats Pretty Much It M>U Songs Are simple but Creative
            
Hard to play? Try these video lessons and learn fast. | Correct




comments powered by Disqus
↑ Back to top | Tablatures and chords are parodies/interpretations of the original songs. You may use it for private study, scholarship, research or language learning purposes only