» » »

Molotov, Yofo Bass tabs (ver.3)

Artists:  A B C D E F G H I J K L M N O P Q R S T U V W X Y Z # 

Yofo Bass tabs (ver.3)

Molotov Tabs
 Rating:
4/5 (4 votes)
Yofo lessons Tabs too difficult? Try these video lessons and learn fast
                Hola ke tal...
aki les dejo la de yofo... a ver si les gusta...
si no les gustan unas partes se las kambian a su modo...
Aki les dejo mi korreo para platikar i a ver si me pueden pasar unas bass tabs ke no he 


G|------------------------------------------------------|
D|--6-8-------6-----------------------------------------|  x4
A|------9-7-9--------5-4-5-7-5-2---8-6--------8-6-4-----|
E|--------------10---------------------5---55-----------|

G|------------------------------------------------------|
D|------------------------------------------------------|
A|-4-------4--------------6----------6------------------|  x2
E|-----------6--------6-6--------------4----------4--4--|

G|------------------------------------------------------|
D|------------------------------------------------------|
A|-44444444------------66666666-------------------------|  x2
E|-----------666666666----------44444444----------------|


G|------------------------------------------------------|
D|--6-8-------6-----------------------------------------|  x4
A|------9-7-9--------5-4-5-7-5-2---8-6--------8-6-4-----|
E|--------------10---------------------5---55-----------|


G|------------------------------------------------------|
D|------------------------------------------------------|
A|-4-------4--------------6----------6------------------|  x2
E|-----------6--------6-6--------------4----------4--4--|

G|------------------------------------------------------|
D|------------------------------------------------------|
A|-44444444------------66666666-------------------------|  x2
E|-----------666666666----------44444444----------------|

G|------------------------------------------------------|
D|--6-8-------6-----------------------------------------|  x4
A|------9-7-9--------5-4-5-7-5-2---8-6--------8-6-4-----|
E|--------------10---------------------5---55-----------|


G|------------------------------------------------------|
D|------------------------------------------------------|
A|-44444444------------66666666-------------------------|  x2
E|-----------666666666----------44444444----------------|


G|------------------------------------------------------|
D|--6-8-------6-----------------------------------------|  x5
A|------9-7-9--------5-4-5-7-5-2---8-6--------8-6-4-----|
E|--------------10---------------------5---55-----------|


kreo ke asi va toda la kancion...
gracias...
(pongan puntuacion)
si no les gusto unas partes se las kambian a su modo...
Aki les dejo mi korreo para platikar i a ver si me pueden pasar unas bass tabs ke no he 
            
Submit corrections

comments powered by Disqus
↑ Back to top | Molotov Bass for Yofo. Lyrics for acoustic guitar and electric guitar. Tablatures and chords are parodies/interpretations of the original songs. You may use it for private study, scholarship, research or language learning purposes only