» » »

Yofo Bass tabs (ver.1)

Artists:  A B C D E F G H I J K L M N O P Q R S T U V W X Y Z # 

Yofo Bass tabs (ver.1)

Molotov
Rating:
4/5 (1 vote)

Hard to play? Try these video lessons and learn fast.
                qiubo gente, esta rola de molotov me gusto bastante
lo q no me gusto s q dijeron q se iban a separar
y luego ya no. me encanta molotov y ya saque el bajo
de pura mamada.
aqui esta el bajo lleva un efecto pero no c cual s

Cuando chifla y en el coro

G|-------------------------------------|
D|-6h8-6-------6-----------------------|
A|-------8-6-8---------------6---------|
E|---------------9-------9-8---9-6-----|

|-----------------------------------|
|-----------------------------------|
|-6h8-6---------------------8-6-4---|
|-------4---------------4-4---------|

Shot ventana, ...

|-----------------------------------------------------|
|-----------------------------------------------------|
|-4-------4--------------6----------6-----------------|
|-----------6--------6-6--------------4----------4--4-|

Asi es toda la cancion, muy papa la nta
ahi c ven, grax por ver sta tab
            
Hard to play? Try these video lessons and learn fast. | Correct




comments powered by Disqus
↑ Back to top | Tablatures and chords are parodies/interpretations of the original songs. You may use it for private study, scholarship, research or language learning purposes only