» » »

Frijolero Tabs (ver.1)

Artists:  A B C D E F G H I J K L M N O P Q R S T U V W X Y Z # 

Frijolero Tabs (ver.1)

Molotov
Rating:
4/5 (10 votes)

Hard to play? Try these video lessons and learn fast.
                Artista: Molotov
Canción: Frijolero

iNTRO
E-------------------------------------------------------------------|
B-------------------------------------------------------------------|
G-------------------------------------------------------------------|
D---5-6-7--777-777-777-5--------------------------------------------|
A-7----------------------8-7----------------------------------------|
E-------------------------------------------------------------------|

y eSTE eS eL iNTRO K sE tOCA cON aCORDEON pASADO a gUITARRA

E--/12~-10-12-10-12~-10---/8~-7-8-7-8~-10~---/8~-7-8-7-8~-7--8~-----|
B---------------------------------------------------------------10~-|
G-------------------------------------------------------------------|
D-------------------------------------------------------------------|
A-------------------------------------------------------------------|
E-------------------------------------------------------------------|

E--/12~-10-12-10-12~-10---/8~-7-8-7-8~-10~---/8~-7-8-7-8~-7--8-7-8~-7--8--7--8~-7-8~-----|
B------------------------------------------------------------------------------------10~-|
G----------------------------------------------------------------------------------------|
D----------------------------------------------------------------------------------------|
A----------------------------------------------------------------------------------------|
E----------------------------------------------------------------------------------------|


Coro

Dm Am Em Am

Verso

Am Dm Em Am

sOLO

E-------------------------------|
B-------------------------------|
G-------------------------------|
D-------------------------------|
A-----10-11-12-12-12-12-10-8----|
E-12-------------------------12-|

E--------------------12-10-8--------------------------------------|
B--13-12-13-12-13-12---------10--8-10-12-13-12-13-12-13-12-8-10---|
G-----------------------------------------------------------------|
D-----------------------------------------------------------------|
A-----------------------------------------------------------------|
E-----------------------------------------------------------------|

E---------------------------12-10-8------------------------------------------|
B-8-10-12-13-12-13-12-13-12---------10-8-10-12-13-12-13-12-13-12-13-12-13-15-|
G----------------------------------------------------------------------------|
D----------------------------------------------------------------------------|
A----------------------------------------------------------------------------|
E----------------------------------------------------------------------------|

E-------------------------------|
B-------------------------------|
G-------------------------------|
D-------------------------------|
A-----10-11-12-12-12-12-10-8----|
E-12-------------------------12-|

ES TODO... ESTA BASTANTE FACIL
            
Hard to play? Try these video lessons and learn fast. | Correct




comments powered by Disqus
↑ Back to top | Tablatures and chords are parodies/interpretations of the original songs. You may use it for private study, scholarship, research or language learning purposes only