» » »

Molotov, Frijolero Bass tabs (ver.1)

Artists:  A B C D E F G H I J K L M N O P Q R S T U V W X Y Z # 

Frijolero Bass tabs (ver.1)

Molotov Tabs
 Rating:
4.2/5 (5 votes)
Frijolero lessons Tabs too difficult? Try these video lessons and learn fast
                HEY PEOPLE WHATS UP !
FINALLY THE BASS TAB FOR FRIJOERO, IM ANDRES DELGADO AN ECUADORINA BASS PLAYER.
THE TAB IS VERY ACCURATE


INTRo
G|------------------------|
D|------------------------|
A|------------------------|
E|-0-3-4-5--5-5--5-3-1-0--|

G|-------------------------------------------------------|
D|----------5-6-7-------------------------------7--------|
A|-5-----5---------7-----5-6-7-----7---------7-----7-6-5-|
E|----5---------------5---------7-----7-8-5--------------|

G|-------------------------------------------------------------------|
D|-------5-6-7----------------------------------------12p14-13-12-10-|
A|----5---------7-----5-6-7-----7-----7-----7--13p14-----------------|
E|-5---------------5---------7-----7-----7---------------------------|

G|----------------------|
D|-7------------7-------|
A|----7-----7------7----|
E|-------5------------5-|

 VERSO
G|-------------------------------------------------|
D|----------------------------------7--------------|
A|----------5-6-7-----7--7-6-5---------------------|
E|-5--0--5---------7------------5------3-4-5--0--5-|


chorus
G|-----------------------------------------------------|
D|----------5-6-7-------------------------------7-5----|
A|-5-----5---------7-----5-6-7-----7---------7------8-7|
E|----5---------------5---------7-----7-8-5------------|

G|----------------------------------------------------------------------|
D|----------5-6-7-----------------------------------7-----------7-------|
A|-5-----5---------7-----5-6-7-----7-----7-----7-------7-----7-----7----|
E|----5---------------5---------7-----7-----7-------------5-----------5-|


when randy starts to sign
g|-------|-------|-------|-----------------|
D|-------|-------|-------|-----------------|
A|-------|--7----|--5----|-----------------|
E|--5-0--|----7--|----5--|--3-4-5--0--5--0-|..... SE SIGUE CON EL VERSO

after the verso
G|-------------------------|
D|-------------------------|
A|-------------------------|
E|-0-3-4-5--5-5---5-3-1-0--|

G|-----------------------------------------------------|
D|----------5-6-7-------------------------------7-5----|
A|-5-----5---------7-----5-6-7-----7---------7------8-7|
E|----5---------------5---------7-----7-8-5------------|

G|-----------------------------------------------|
D|----------5-6-7--------------------------------|
A|-5-----5---------7-----5-6-7-----7-----7-----7-|
E|----5---------------5---------7-----7-----7----|

G|-------------------------|
D|-------------------------|
A|-------------------------|
E|-0-3-4-5--5-5---5-3-1-0--|


FINAL
G|-----------------------------------------------------|
D|----------5-6-7-------------------------------7-5----|
A|-5-----5---------7-----5-6-7-----7---------7------8-7|
E|----5---------------5---------7-----7-8-5------------|

G|--------------------------------------------------|----------------|
D|----------5-6-7-----------------------------------|----------------|
A|-5-----5---------7-----5-6-7-----7-----7-----7----|---7------------|
E|----5---------------5---------7-----7-----7-----7-|--------7----5--|
            
Submit corrections

comments powered by Disqus
↑ Back to top | Molotov Bass for Frijolero. Lyrics for acoustic guitar and electric guitar. Tablatures and chords are parodies/interpretations of the original songs. You may use it for private study, scholarship, research or language learning purposes only