» » »

Molotov, Chinga Tu Madre Bass tabs (ver.1)

Artists:  A B C D E F G H I J K L M N O P Q R S T U V W X Y Z # 

Chinga Tu Madre Bass tabs (ver.1)

Molotov Tabs
 Rating:
3.7/5 (6 votes)
Chinga Tu Madre lessons Tabs too difficult? Try these video lessons and learn fast
                Intro:
G|---------------------|  |------------------|  |-------------------|
D|-----2/4-4-4-4---2-1-|x1|---2-4-4-4-4--2-1-|x4|---2/4-4-4-4/8-----|x1
A|---------------------|  |------------------|  |---------------9-7-|
E|-0h2-----------2-----|  |-2-----------2----|  |-2-----------------|
Verse:
G|-------------|  |----|  |-------------|   |----|
D|---4---------|x3|----|x1|---4---------|x15|----|x1
A|---------1h2-|  |----|  |---------1h2-|   |----|
E|-2---2-2-----|  |-2~-|  |-2---2-2-----|   |-2~-|
Chorus:
G|-------------------|  |-------------------|  |-------------------|
D|---2-4-4-4-4---2-1-|x3|---2/4-4-4-4/8-----|x1|---2-4-4-4-4---2-1-|x3
A|-------------------|  |---------------9-7-|  |-------------------|
E|-2-----------2-----|  |-2-----------------|  |-2-----------2-----|

G|-------|
D|---2-4-|x1     CHINGA TU MADRE!!!
A|-------|
E|-2-----|

Verse #2:
G|-------------|   |----|
D|---4---------|x11|----|x1
A|---------1h2-|   |----|
E|-2---2-2-----|   |-2~-|
Chorus:
G|-------------------|  |-------------------|  |-------------------|
D|---2-4-4-4-4---2-1-|x3|---2/4-4-4-4/8-----|x1|---2-4-4-4-4---2-1-|x3
A|-------------------|  |---------------9-7-|  |-------------------|
E|-2-----------2-----|  |-2-----------------|  |-2-----------2-----|

G|-------|
D|---2-4-|x1     CHINGA TU MADRE!!!
A|-------|
E|-2-----|

Bridge: You don´t play (only drums)
and then...
G|----|  |-------------|   Slap:|---4-3-----------|
D|----|x1|---4---------|x3      |-------4-2-1-----|x1
A|----|  |---------1h2-|        |-------------2-1-|
E|-2~-|  |-2---2-2-----|        |-2---------------|
Chorus:
G|-------------------|  |-------------------|  |-------------------|
D|---2-4-4-4-4---2-1-|x3|---2/4-4-4-4/8-----|x1|---2-4-4-4-4---2-1-|x3
A|-------------------|  |---------------9-7-|  |-------------------|
E|-2-----------2-----|  |-2-----------------|  |-2-----------2-----|

G|-------------------|
D|---2/4-4-4-4/8-----|x1
A|---------------9-7-|
E|-2-----------------|
Bridge:
G|-------------------|
D|---0h2-2-2-2-2-----|x4
A|---------------5-4-|
E|-0-----------------|
Chorus:
G|-------------------|  |-------|
D|---2-4-4-4-4---2-1-|x3|---2-4-|x1     CHINGA TU MADRE!!!
A|-------------------|  |-------|
E|-2-----------2-----|  |-2-----|
            
Submit corrections

comments powered by Disqus
↑ Back to top | Molotov Bass for Chinga Tu Madre. Lyrics for acoustic guitar and electric guitar. Tablatures and chords are parodies/interpretations of the original songs. You may use it for private study, scholarship, research or language learning purposes only