» » »

Molotov, Chinga Tu Madre Tabs (ver.1)

Artists:  A B C D E F G H I J K L M N O P Q R S T U V W X Y Z # 

Chinga Tu Madre Tabs (ver.1)

Molotov Tabs
 Rating:
4/5 (5 votes)
Chinga Tu Madre lessons Tabs too difficult? Try these video lessons and learn fast
1
                "Chinga tu Madre" By molotov,

PREFACE:

an "h" before a note means hammer
a  "p" before a note means pull off
a  "w" after a note, or a group of notes means play the notes with the whammy 
activated (one octave higher)

This is tabbed for standard tuning
________________________________________________________

Main Riff 

Part A

1|----------------------------|
2|----------------------------|
3|----------------------------|
4|--------4-4--4-4p2----------|    x 3 
5|-------------------4-0--0h2-|
6|--0h2-2---------------------|

Part B
1|----------------------------|
2|----------------------------|
3|-----------------3----------|
4|--------4-4--4-4---4-2h4----|   
5|----------------------------|
6|--0h2-2---------------------|


This is the start where there is no singing, only bass guitar and drums.
I recommend you listen closely to the guitar so you can get the rythm, its
difficult to express on text.
The main riff also repeats when they sing " Chinga tu madre ", the chorus of the song.
And it is always Part A x 3, Part B, Part A x3 again then Part C (included below)


Verse.

1|-----------------------------------------------|
2|---------------7w------------------------------|
3|-----------------------------------------------|
4|------4w---------------------------------------|
5|-----------------------------------------------|
6|--2-------2------------------------------------|

The verse part is always the same, but note that it finishes in

Part C
1|-----------|
2|-----------|
3|-----------|
4|------4w---|
5|-----------|
6|--2-------2|


Then on the bridge, its only drum and voices, and the guitar does some little fills,


1|--2h3p2h3--(2h3p2h3p2)w-------|
2|------------------------------|
3|------------------------------|
4|------------------------------|
5|------------------------------|
6|------------------------------|

Then goes back to the chorus

And then the solo with wah-wah while the chorus rages on.
Its a cromatic run through the neck.
This is an aprox, because the sound of the guitar is not very high, its more of a fill 
rather than a solo

1|-----------------------------------------------|
2|-------2--5--7-8-9-10-11-12-13-14-16---17-17-14|
3|---2-4-----------------------------------------|
4|-----------------------------------------------|
5|-----------------------------------------------|
6|-----------------------------------------------|

Then the main riff repeats until finish of the song.


Hope it works for you.
            
Submit corrections

comments powered by Disqus
↑ Back to top | Molotov Tabs for Chinga Tu Madre. Lyrics for acoustic guitar and electric guitar. 1 Tablatures and chords are parodies/interpretations of the original songs. You may use it for private study, scholarship, research or language learning purposes only