» » »

Amateur Tabs (ver.3)

Artists:  A B C D E F G H I J K L M N O P Q R S T U V W X Y Z # 

Amateur Tabs (ver.3)

Molotov
Rating:
0/5 (0 votes)
Tabs too difficult? Try these video lessons and learn fast.
                this is my first tab so its not gona be perfect but i hope u like it

INTRO > 4 times   the slide only in the first time
e----------------------------------/
B----------------------------------/
G----------------------------------/
D----------5-----------------------/
A------5------7/3-----7--5--7------/
E----7---7----------0-----0--------/

VERSE
e---------------------------------------/
B---------------------------------------/
G---9------3------2--2--9---------------/
D---9------3------2--2--9---------------/
A---7------5------0--4--7---------------/
E---0-----------------------------------/

BRIDGE
e-----------------------------/
B-----------------------------/
G-----------------------------/
D----------5------------------/
A------5-----7----------------/
E----7---7--------------------/


RIFF > 3 times
e------------------------------/--------------|
B------------------------------/--------------|
G------------------------------/--------------|
D--------9---7-----------------/--------------|
A----7-----------10---9--------/----5h7-------|
E--0---0---0---0----0----------/--------------|

then only the bass plays...........................

u play the hole thing again form the intro

then the bass plays again..........................

RIFF 2 > 4 times
e-----------------------------------------|
B-----------------------------------------|
G-----------------------------------------|
D-----------------------------------------|
A----15---12--15--12--15---15---12---15---|
E----12--------------------12-------------|

the u play the verse
then the bridege
and u end it with the bridge

well i hope u like it cause it took me a lot off time to figure it out and then to 
it all here =S


please rate it, preatty please, preatty please with sugar on top, and a cherry XD
            
Tabs too difficult? Try these video lessons and learn fast.


comments powered by Disqus
↑ Back to top | Tablatures and chords are parodies/interpretations of the original songs. You may use it for private study, scholarship, research or language learning purposes only