» » »

Molotov, Amateur Tabs (ver.2)

Artists:  A B C D E F G H I J K L M N O P Q R S T U V W X Y Z # 

Amateur Tabs (ver.2)

Molotov Tabs
 Rating:
4/5 (4 votes)
Amateur lessons Tabs too difficult? Try these video lessons and learn fast
                -----------------------------------------------------------------------------
                            AMATEUR - MOLOTOV
-----------------------------------------------------------------------------

Standard Tuning

The Tab on here already is decent but... needs to be better

Main/Bridge riff
e|----------------------------|
B|----------------------------|
G|----------------------------|
D|------------5---------------|
A|------5---------7----7------|
E|---7-----7-------------0--0-|
pm                       ^  ^

Chorus riff
e|------------------------------------------------|
B|------------------------------------------------|
G|-----5---2--4-----------------------------------|
D|-2---5---2--4---2-------------------------------|
A|-2---3---0--2---2-------------------------------|
E|-0--------------0-------------------------------|

Chorus lead
e|---------------------------------------------------------------|
B|-----0---4---2----------0-----4-----2-----0-----0----4---2-----|
G|--2----2---2---2--4------------------------------------------4-|
D|---------------------3-----3-----3-----3-----0-----0---2---2---|
A|---------------------------------------------------------------|
E|---------------------------------------------------------------|

e|--------------------|
B|-----0---4---2------|
G|--2----2---2---2--4-|
D|--------------------|
A|--------------------|
E|--------------------|

Last verse lick
e|-12--10-----10----10--12--10----|
B|---------12----12------------12-|
G|--------------------------------|
D|--------------------------------|
A|--------------------------------|
E|--------------------------------|
            
Submit corrections

comments powered by Disqus
↑ Back to top | Molotov Tabs for Amateur. Lyrics for acoustic guitar and electric guitar. Tablatures and chords are parodies/interpretations of the original songs. You may use it for private study, scholarship, research or language learning purposes only