» » »

Missy Higgins, Secret Tabs (ver.2)

Artists:  A B C D E F G H I J K L M N O P Q R S T U V W X Y Z # 

Secret Tabs (ver.2)

Missy Higgins Tabs
 Rating:
4/5 (4 votes)
Secret lessons Tabs too difficult? Try these video lessons and learn fast
1
                -------------------------------------------------------------------------------
                             SECRET - Missy Higgins
-------------------------------------------------------------------------------

Tuning: normal
Capo: 1st fret

Song structure remains the same throughout. Use a little muted strumming between notes.

e|-----------------|-----------------||
B|-----------------|-----------------||
G|-----------------|-----------------||
D|-----------------|-----------------||
A|-----------------|-----------------||
E|-5----3--3---0---|-5----3--3---0---||

Playing acoustically with more strum, you can use these chords
alternating the Am occasionally with Asus2, connecting with E bass.

   Am   G  G        Asus2 G  G
e|-0----3--3-------|-0----3--3-------||
B|-1----0--0-------|-0----0--0-------||
G|-2----0--0-------|-2----0--0-------||
D|-2----0--0-------|-2----0--0-------||
A|-0----2--2-------|-0----2--2-------||
E|-x----3--3---0---|-x----3--3---0---||


| /  slide up
| \  slide down
| h  hammer-on
| p  pull-off
| ~  vibrato
| +  harmonic
| x  Mute note
===============================================================================
            
Submit corrections

comments powered by Disqus
↑ Back to top | Missy Higgins Tabs for Secret. Lyrics for acoustic guitar and electric guitar. 1 Tablatures and chords are parodies/interpretations of the original songs. You may use it for private study, scholarship, research or language learning purposes only