» » »

Secret Tabs (ver.1)

Artists:  A B C D E F G H I J K L M N O P Q R S T U V W X Y Z # 

Secret Tabs (ver.1)

Missy Higgins
Rating:
4/5 (3 votes)

Hard to play? Try these video lessons and learn fast.
                Missy Higgins - Secret
On A Clear Night

Capo on 1st Standard Tuning



VERSES:
E-|----------------------------------------|
B-|----------------------------------------|
G-|----------------------------------------|
D-|------x-x-x---------------x-x-x---------|
A-|---0--x-x-x------------0--x-x-x---------|
E-|-0----x-x-x-3--3-3---0----x-x-x-3--3-3--|

CHORUS VARIATION:
E-|----------------------------------------|
B-|----------------------------------------| 
G-|----------------------------------------|
D-|---2--x-x-x------------2--x-x-x---------|
A-|-2-0--x-x-x-2--2-2---2-0--x-x-x-2--2-2--|
E-|-0----x-x-x-3--3-3---0----x-x-x-3--3-3--|
            
Hard to play? Try these video lessons and learn fast. | Correct




comments powered by Disqus
↑ Back to top | Tablatures and chords are parodies/interpretations of the original songs. You may use it for private study, scholarship, research or language learning purposes only