» » »

Missy Higgins, Don't Ever Tabs (ver.1)

Artists:  A B C D E F G H I J K L M N O P Q R S T U V W X Y Z # 

Don't Ever Tabs (ver.1)

Missy Higgins Tabs
 Rating:
3.6/5 (7 votes)
Don't Ever lessons Tabs too difficult? Try these video lessons and learn fast
                Intro       
------------------------------2/3---------------|--\10po9--------------|
------3---------2-----------3-----------3-------|--------10------------|
----0---0-----2---2-------2-----------0---0-----|-----------7h8h10-----|
-----------------------0------------------------|-------------------7--|
------------0-------0---------------------------|----------------------|
--3-------3------------------------3---------3--|----------------------|

Verse I
Gadd			A
Let's take the train to anywhere
D			Gadd
I wanna feel the wind in my hair with you.
Gadd			A
Let's tell them all, that soon they'll know
D				Gadd
How very wrong they were to think we'd never go,
	A	   D	      Gadd
And if you tell me yours I'll tell you mine
    A	        A     Gadd           D            Gadd
And we will clean the cobwebs out of one anothers minds.


Chorus
           D          A        Gadd             D
Don't ever say you've tried to leave me in this life
Gadd	   D		A	    D
Don't ever say you've tried for the last time.

Solo
----------------------------------|
--3po2----------------------------|
--------2-------------------------|
--0-----0-----4h5h7po0------------|
--0-----0-------------------------|
-----------3----------------------|


Verse II
Gadd                        A                  
We'll get a house where the trees hang low 
    D                            Gadd
And pretty little flowers on our window sill will grow
Gadd                        A
We'll make friends with the milk man
        D                              Gadd
And the butcher Mr. Timms will give us discounts when he can,
	A	   D	      Gadd
And if you tell me yours I'll tell you mine
Gadd     	      A              D            Gadd
And we will clean the cobwebs out of one anothers minds.


Chorus

Bridge
Bm           D   Bm          D   B6         D   
La, di da di da, La di da di da, La di da di da
D        Gadd         A
Di da di da, Di da di daaaaaah

Chorus
           B6       Gadd           A    D
Don't ever say, you tried, for the last time
            
Submit corrections

comments powered by Disqus
↑ Back to top | Missy Higgins Tabs for Don't Ever. Lyrics for acoustic guitar and electric guitar. Tablatures and chords are parodies/interpretations of the original songs. You may use it for private study, scholarship, research or language learning purposes only