>
 >
Ghost Of Frankenstein

Ghost Of Frankenstein Guitar Tabs

Misfits - Ghost Of Frankenstein chords, tabs, tablatures, lyrics

Guitar lessons | Add/correct | Request | Top 50 tabs Artists:  A B C D E F G H I J K L M N O P Q R S T U V W X Y Z 0-9

Ghost Of Frankenstein Guitar Tabs – Misfits

CD, Sheet music, Poster

Do you like Ghost Of Frankenstein? Share with your friends now
Tabs
-------------------------------------------------------------------------------
-------------------------------------------------------------------------------

Tuning: standard

Intro:

e|--------------------------------------------------------------|
B|--------------------------------------------------------------|
G|--4-4-4-3--3--------------------4-4-4-3--3--------------------|
D|--4-4-4-3--3--3-3-3-4--4-4-4-4--4-4-4-3--3--3-3-3-4--4-4-4-4--|
A|--2-2-2-1--1--3-3-3-4--4-4-4-4--2-2-2-1--1--3-3-3-4--4-4-4-4--|
E|--------------1-1-1-2--2-2-2-2--------------1-1-1-2--2-2-2-2--|

e|--------------------------------------------------------------|
B|--------------------------------------------------------------|
G|--4-4-4-3--3----------------------8--8-8-8-8-8-8-8-8-8-8-8-8--|
D|--4-4-4-3--3--3-3-3-4--4-4-4-4-3--8--8-8-8-8-8-8-8-8-8-8-8-8--|
A|--2-2-2-1--1--3-3-3-4--4-4-4-4-3--6--6-6-6-6-6-6-6-6-6-6-6-6--|
E|--------------1-1-1-2--2-2-2-2-1------------------------------|

e|--------------------------------------------------------------|
B|--------------------------------------------------------------|
G|--4-4-4-3--3--------------------4-4-4-3--3--------------------|
D|--4-4-4-3--3--3-3-3-4-----------4-4-4-3--3--3-3-3-4-----------|
A|--2-2-2-1--1--3-3-3-4-----------2-2-2-1--1--3-3-3-4-----------|
E|--------------1-1-1-2-----------------------1-1-1-2-----------|

e|--------------------------------------------------------------------|
B|--------------------------------------------------------------------|
G|--4-4-4-3--3----------------------8--8-8-8-8-8-8-8-8-8-8-8-8-8-8-8--|
D|--4-4-4-3--3--3-3-3-4--4-4-4-4-3--8--8-8-8-8-8-8-8-8-8-8-8-8-8-8-8--|
A|--2-2-2-1--1--3-3-3-4--4-4-4-4-3--6--6-6-6-6-6-6-6-6-6-6-6-6-6-6-6--|
E|--------------1-1-1-2--2-2-2-2-1------------------------------------|

Verse:

e|------------------------------------------------------------------|
B|------------------------------------------------------------------|
G|------------------------------------------------------------------|
D|--8-8-8-8-8-8-8-8-8-8-8-8-8-6-4--4-4-4-4-4-4-4-4-6-6-6-6-6-6-6-6--| (x3)
A|--8-8-8-8-8-8-8-8-8-8-8-8--------4-4-4-4-4-4-4-4-6-6-6-6-6-6-6-6--|
E|--6-6-6-6-6-6-6-6-6-6-6-6--------2-2-2-2-2-2-2-2-4-4-4-4-4-4-4-4--|

e|-------------------------------------------------------------------|
B|-------------------------------------------------------------------|
G|-------------------------------------------------------------------|
D|--3-3-3-3-3-3-3-3-4-4-4-4-4-4-4-4-4-4-4-4-4-4-4-4-6-6-6-6-6-6-6-6--|
A|--3-3-3-3-3-3-3-3-4-4-4-4-4-4-4-4-4-4-4-4-4-4-4-4-6-6-6-6-6-6-6-6--|
E|--1-1-1-1-1-1-1-1-2-2-2-2-2-2-2-2-2-2-2-2-2-2-2-2-4-4-4-4-4-4-4-4--|

e|---------------------------------------------------|
B|---------------------------------------------------|
G|---------------------------------------------------|
D|--3-3-3-3-3-3-3-3-4-4-4-4-4-4-4-4-4-4-4-4-4-4-4-4--|
A|--3-3-3-3-3-3-3-3-4-4-4-4-4-4-4-4-4-4-4-4-4-4-4-4--|
E|--1-1-1-1-1-1-1-1-2-2-2-2-2-2-2-2-2-2-2-2-2-2-2-2--|

e|-------------------------------------------------------------------|
B|-------------------------------------------------------------------|
G|-------------------------------------------------------------------|
D|--6-6-6-6-6-6-6-6-6-6-6-6-6-6-6-6-8-8-8-8-8-8-8-8-8-8-8-8-8-8-8-8--|
A|--6-6-6-6-6-6-6-6-6-6-6-6-6-6-6-6-8-8-8-8-8-8-8-8-8-8-8-8-8-8-8-8--|
E|--4-4-4-4-4-4-4-4-4-4-4-4-4-4-4-4-6-6-6-6-6-6-6-6-6-6-6-6-6-6-6-6--|

Chorus:

e|-------------------------------------------------------------------|
B|-------------------------------------------------------------------|
G|----------------------------------6-6-6-6-6-6-6-6------------------|
D|--8-8-8-8-8-8-8-8-4-4-4-4-4-4-4-4-6-6-6-6-6-6-6-6-6-6-6-6-6-6-6-6--| (x4)
A|--8-8-8-8-8-8-8-8-4-4-4-4-4-4-4-4-4-4-4-4-4-4-4-4-6-6-6-6-6-6-6-6--|
E|--6-6-6-6-6-6-6-6-2-2-2-2-2-2-2-2-----------------4-4-4-4-4-4-4-4--|

Interlude:

e|--------------------------------------------------------|
B|--------------------------------------------------------|
G|--3--3--------------------4-4-4-3--3--------------------|
D|--3--3--3-3-3-4--4-4-4-4--4-4-4-3--3--3-3-3-4--4-4-4-4--|
A|--1--1--3-3-3-4--4-4-4-4--2-2-2-1--1--3-3-3-4--4-4-4-4--|
E|--------1-1-1-2--2-2-2-2--------------1-1-1-2--2-2-2-2--|

e|--------------------------------------------------------------------|
B|--------------------------------------------------------------------|
G|--4-4-4-3--3----------------------8--8-8-8-8-8-8-8-8-8-8-8-8-8-8-8--|
D|--4-4-4-3--3--3-3-3-4--4-4-4-4-3--8--8-8-8-8-8-8-8-8-8-8-8-8-8-8-8--|
A|--2-2-2-1--1--3-3-3-4--4-4-4-4-3--6--6-6-6-6-6-6-6-6-6-6-6-6-6-6-6--|
E|--------------1-1-1-2--2-2-2-2-1------------------------------------|

Then play verse and chorus

Continue the chorus with G#:

e|---------------------------------------------------|
B|---------------------------------------------------|
G|---------------------------------------------------|
D|--6-6-6-6-6-6-6-6-4-4-4-4-4-4-4-4-4-4-4-4-4-4-4-4--|
A|--6-6-6-6-6-6-6-6-4-4-4-4-4-4-4-4-4-4-4-4-4-4-4-4--|
E|--4-4-4-4-4-4-4-4-2-2-2-2-2-2-2-2-2-2-2-2-2-2-2-2--|

e|-----------------------------------|
B|-----------------------------------|
G|-----------------------------------|
D|--3-3-3-3-3-3-3-3-3-3-3-3-3-3-3-3--|
A|--3-3-3-3-3-3-3-3-3-3-3-3-3-3-3-3--|
E|--1-1-1-1-1-1-1-1-1-1-1-1-1-1-1-1--|

Ending:

e|-----------------------------------------------|
B|-----------------------------------------------|
G|--3--3--------------------4-4-4-3--3-----------|
D|--3--3--3-3-3-4--4-4-4-4--4-4-4-3--3--3-3-3-4--|
A|--1--1--3-3-3-4--4-4-4-4--2-2-2-1--1--3-3-3-4--|
E|--------1-1-1-2--2-2-2-2--------------1-1-1-2--|

| /  slide up
| \  slide down
| h  hammer-on
| p  pull-off
| ~  vibrato
| +  harmonic
| x  Mute note
===============================================================================





Comments


Popular Misfits tabs & chords
From Hell They Came Bass Tabs
Halloween 3 Bass Tabs
Saturday Night Chords
Speak Of The Devil Chords
Monster Mash Drum Tabs
Spinal Remains Drum Tabs
Vampira Drum Tabs
Dig Up Her Bones 5 Tabs
Walk Among Us 2 Tabs
She Ukulele


Song lyrics



↑ Back to top | Tablatures and chords are parodies/interpretations of the original songs. You may use it for private study, scholarship, research or language learning purposes only
© 2014 AZChords.com Contact us | Privacy policy | DMCA | Add/correct tabs | Request tabs | Top 50 tabs