» » »

Donna Bass tabs (ver.1)

Artists:  A B C D E F G H I J K L M N O P Q R S T U V W X Y Z # 

Donna Bass tabs (ver.1)

Misfits
Rating:
0/5 (0 votes)

Hard to play? Try these video lessons and learn fast.
                Misfits - Donna
Projekt 1950

Intro/Verse:

g|-----------------------------------------------------------------
d|-----------------------------------------------------------------
a|--------------------------------2-2-2-2-2-2-2-2--4-4-4-4-4-4-4-4-
e|2-2-2-2-2-2-2-2-2-2-2-2-2-2-2-2----------------------------------


Bridge:

g|----------------------------------------------------------------
d|----------------------------------------------------------------
a|----------------2-2-2-2-2-2-2-2---------------------------------
e|2-2-2-2-2-2-2-2-----------------2-2-2-2-2-2-2-2-2-2-2-2-2-2-2-2-


Chorus:

g|----------------------------------------------------------------
d|----------------------------------------------------------------
a|2-2-2-2-2-2-2-2-2-2-2-2-2-2-2-2-2-2-2-2-2-2-2-2-2-2-2-2-2-2-2-2-
e|----------------------------------------------------------------

g|----------------------------------------------------------------
d|----------------------------------------------------------------
a|----------------------------------------------------------------
e|2-2-2-2-2-2-2-2-2-2-2-2-2-2-2-2-2-2-2-2-2-2-2-2-2-2-2-2-2-2-2-2-

g|----------------------------------------------------------------
d|----------------------------------------------------------------
a|2-2-2-2-2-2-2-2-2-2-2-2-2-2-2-2-2-2-2-2-2-2-2-2-2-2-2-2-2-2-2-2-
e|----------------------------------------------------------------

g|----------------------------------------------------------------
d|----------------------------------------------------------------
a|4-4-4-4-4-4-4-4-4-4-4-4-4-4-4-4--4--4--4-3-2-1---back to verse--
e|----------------------------------------------------------------


9x Verse
1x Bridge
1x Chorus
3x Verse
1x Bridge
1x Chorus
8x Verse

That's my first tab, so i'm not sure if it's correct.
            
Hard to play? Try these video lessons and learn fast. | Correct




comments powered by Disqus
↑ Back to top | Tablatures and chords are parodies/interpretations of the original songs. You may use it for private study, scholarship, research or language learning purposes only