» » »

Misfits, Braineaters Tabs (ver.1)

Artists:  A B C D E F G H I J K L M N O P Q R S T U V W X Y Z # 

Braineaters Tabs (ver.1)

Misfits Tabs
 Rating:
4/5 (4 votes)
Braineaters lessons Tabs too difficult? Try these video lessons and learn fast
                Tunning E A D G B E

VERSE-  2x
  E5              A5              E5              B5
|-----------------------------------------------------------------|
|-----------------------------------------------------------------|
|-----------------------------------------------------------------|
|-----------------------------------------------------------------|
|-2---2-2-2-2-2-2-7---7-7-7-7-7-7-2---2-2-2-2-2-2-9---9-9-9-9-9-9-|
|-0---0-0-0-0-0-0-5---5-5-5-5-5-5-0---0-0-0-0-0-0-7---7-7-7-7-7-7-|

  E5              B5              A5              E5
|-----------------------------------------------------------------|
|-----------------------------------------------------------------|
|-----------------------------------------------------------------|
|-------------------------------------------------9---9-9-9-9-9-9-|
|-2---2-2-2-2-2-2-9---9-9-9-9-9-9-7---7-7-7-7-7-7-7---7-7-7-7-7-7-|
|-0---0-0-0-0-0-0-7---7-7-7-7-7-7-5---5-5-5-5-5-5-----------------|

CHORUS-  1x
  A5                              E5
|-----------------------------------------------------------------|
|-----------------------------------------------------------------|
|-----------------------------------------------------------------|
|-----------------------------------------------------------------|
|-7-------------------------------2-------------------------------|
|-5-------------------------------0-------------------------------|

  A5                              B5                          A5
|-----------------------------------------------------------------|
|-----------------------------------------------------------------|
|-----------------------------------------------------------------|
|-----------------------------------------------------------------|
|-7-------------------------------9-9-9-9-9-9-9-9-9-9-9-9-7-7-7-7-|
|-5-------------------------------7-7-7-7-7-7-7-7-7-7-7-7-7-7-5-5-|

VERSE-  1x

OUTRO-  1x
  B5      A5      E5              B5              A5              E5 let ring
|-------------------------------------------------------------------|
|-------------------------------------------------------------------|
|-------------------------------------------------------------------|
|-----------------9---9---9---9-------------------------------------|
|-9-9-9-9-7-7-7-7-7---7---7---7---9---9---9---9---7---7---7---7---2-|
|-7-7-7-7-5-5-5-5-----------------7---7---7---7---5---5---5---5---0-|

END
            
Submit corrections

comments powered by Disqus
↑ Back to top | Misfits Tabs for Braineaters. Lyrics for acoustic guitar and electric guitar. Tablatures and chords are parodies/interpretations of the original songs. You may use it for private study, scholarship, research or language learning purposes only