» » »

The House That Built Me Tabs (ver.2)

Artists:  A B C D E F G H I J K L M N O P Q R S T U V W X Y Z # 

The House That Built Me Tabs (ver.2)

Miranda Lambert
Rating:
0/5 (0 votes)

Hard to play? Try these video lessons and learn fast.
                (Intro)
e| --------------------------------|--------------------------0-----|
b| ----------------------3---------|----------------------3---------|
g| ------------------2-------------|------------------2-----------2-|
d| ----0-------0-------0-------0---|----0-------0-------0-------0---|
a| --------------------------------|--------------------------------|
e| 0-------0-------0-------0-------|0-------0-------0-------0-------|


e| 0/2----3--2---------------------|--------------------------0-----|
b| ----------------5-----3---2-----|0/3---0---------3-----3---------|
g| --------------------------------|----------0-----2---------------|
d| ----0-------0-------2-------2---|----0-------0-------0-------0---|
a| ----------------0-------0-------|--------------------------------|
e| 0-------0-----------------------|5-------5-------0-------0-------|


e| 0/2----0------------------------|--------------------------------|
b| ----------3-----5-----3---2-----|3--------------3--------------3-|
g| --------------------------------|2---------2---------------2-----|
d| ----0-------0-------2-------2---|----0-------0-------0-------0---|
a| ----------------0-------0-------|--------------------------------|
e| 0-------0-----------------------|0-------0-------0-------0-------|




Chords:


    D  G  F#m  A  Em  Bm
e| -2--X---2---X---0---X-----------|
b| -3--3---2---2---0---3-----------|
g| -2--0---2---2---0---4-----------|
d| -0--0---4---2---2---4-----------|
a| -X--X---X---0---X---2-----------|
e| -0--5---4---X---2---X-----------|
            
Hard to play? Try these video lessons and learn fast. | Correct




comments powered by Disqus
↑ Back to top | Tablatures and chords are parodies/interpretations of the original songs. You may use it for private study, scholarship, research or language learning purposes only