>
 >
The House That Built Me

The House That Built Me Guitar Tabs

Miranda Lambert - The House That Built Me chords, tabs, tablatures, lyrics

Guitar lessons | Add/correct | Request | Top 50 tabs Artists:  A B C D E F G H I J K L M N O P Q R S T U V W X Y Z 0-9

The House That Built Me Guitar Tabs – Miranda Lambert

CD, Sheet music, Poster

Do you like The House That Built Me? Share with your friends now
ChordsChords v2Chords v3Chords v4Chords v5TabsTabs v2Ukulele
--CAPO 3 with Standard Tuning--
*Not fully finished but the intro and most of the lyrical parts are done*

E|-----------------------------------------------0----0h2--3---2----0-----------|
B|-------------------3------------------------3-------------------------3---2---|
G|----------------2-----------------------2-------------------------------------|
D|-----0-----0-----0-----0-----0-----0------0------0-----0-------0-----2-----2--|
A|--0-----0-----0-----0-----0-----0-----0------0------0------0------0-----0-----|
E|------------------------------------------------------------------------------|
    1     2     3     4     5     6     7      8      9      10    11    12


E|----------------------0---0h2---0-------0-----------------------------------------|
B|--0h3--0-----------3----------------3---------3---2----3-----------3------------3-|
G|----------0--2-------------------------------------------------2------------2-----|
D|-----0-----0-----0-----0------0-------0-----2-------2-----0------0-----0------0---|
A|--0-----0-----0-----0-----0-------0-----0-------0------0-----0------0-----0-------|
E|----------------------------------------------------------------------------------|

E|---------------------------------------------------------------------------------|
B|--------------3------------------------3------------3-------------3------------3-|
G|----------2------------------------2------------2-------------2------------2-----|
D|-----0------0-----0-----0-----0------0-----0------0------0------0-----0------0---|
A|--0-----0------0-----0-----0-----0------0-----0-------0-----0------0-----0-------|
E|---------------------------------------------------------------------------------|

E|---------------------------------------------------0-------------------------------|
B|--------------2------------2-------------2-------------3-----------3-------------3-|
G|----------2------------2-------------2-------------------------0-------------0-----|
D|-----4------4-----4------4------4------4-----4------------0------0------0------0---|
A|-----------------------------------------------------------------------------------|
E|--2-----2------2-----2-------2-----2-------2-----2-----3-----3-------3-----3-------|

E|-------------------------------------------------0------------------------0-|
B|--------------3-------0--------------3-------3-------------3---2------------|
G|----------0--------------2------------------------------2-------------------|
D|-----0------0-----0---------0-----0-----0------0-----0-------2------2-------|
A|-------------------------0-----0-----0-----0------0-----0--------0-----0----|
E|--3-----3-------3---3-------------------------------------------------------|

E|--------------------------------------------------------|
B|--------------3------------3-------------3------------3-|
G|-----------2------------2-------------2------------2----|
D|------0------0-----0------0------0------0-----0------0--|
A|---0-----0------0-----0-------0-----0------0-----0------|
E|--------------------------------------------------------|
   "Up those stairs..."


E|---------------------------------------------------0-------------------------------|
B|--------------2------------2-------------2-------------3-----------3-------------3-|
G|----------2------------2-------------2-------------------------0-------------0-----|
D|-----4------4-----4------4------4------4-----4------------0------0------0------0---|
A|-----------------------------------------------------------------------------------|
E|--2-----2------2-----2-------2-----2-------2-----2-----3-----3-------3-----3-------|

E|-------------------------------------------------0------------------------0-|
B|--------------3-------0--------------3-------3-------------3---2------------|
G|----------0--------------2------------------------------2-------------------|
D|-----0------0-----0---------0-----0-----0------0-----0-------2------2-------|
A|-------------------------0-----0-----0-----0------0-----0--------0-----0----|
E|--3-----3-------3---3-------------------------------------------------------|

--------
-Chorus-
--------

E|--------------------------------------------------------------------------------------|
B|--------------3--------------3-------------3------------3-----------------------------|
G|----------0--------------0-------------0------------0---------------------------------|
D|-----0------0-------0------0------0------0-----0------0--------0------0------0------0-|
A|--------------------------------------------------------------------------------------|
E|--3-----3--------3-----3-------3-----3------3-----3--------0------0------0------0-----|
    "The thought if I could touch this place..."


E|---------------0---------------------------------------------------------------------|
B|-----------3-------------3---------------3------------3----------0---3---------0---3-|
G|-------2-----------------------------0------------0----------------------------------|
D|-----0-------0------0----0------0------0-----0------0--------0-----0------0------0---|
A|--0------0-------0-----0---------------------------------2-----2-------2-----2-------|
E|-----------------------------3-----3-------3---3-------------------------------------|

E|---------------------------------------------0-------------------------------------------------|
B|--------------3--------------3-----------3--------------3----------------------3--------------3|
G|----------0--------------0------------------------------------------------0---------------0----|
D|----0-------0------0-------0--------0------0------0-------0--------0--------0-------0-------0--|
A|--------------------------------0------0-------0------0----------------------------------------|
E|-3------3-------3-----3-----------------------------------------3------3---------3------3------|

E|--------------0------------------------------------------------------------------------|
B|----------3-------------3-----------3---2----------------------------3---------------3-|
G|-------2--------------------------------------------------------0---------------0------|
D|-----0------0------0----0------2------2------2-----2------0--------0-------0------0----|
A|--0-----0-------0-----0-----0-----0-------0-----0--------------------------------------|
E|-------------------------------------------------------3-----3---------3------3--------|
                             "From the house that built me..."


E|-------------------------------------------------------------------------------------|
B|-----------3-------------------------------------------------------------------------|
G|-------2--------2--------------------------------------------------------------------|
D|-----0-------0-----0----0------------------------------------------------------------|
A|--0------0------0-----0--------------------------------------------------------------|
E|-------------------------------------------------------------------------------------|

----------
-Bridge 1-
----------

E|----------------------------------------------------------------------------------|
B|----------------------------------------------------------------------------------|
G|----------------------------------------------------------------------------------|
D|-----0------0-----0----0------0------0-----0------0--------0------0------0------0-|
A|-------------------------------------------------------0------0------0------0-----|
E|--3-----3-----3-----3-----3------3------3-----3-----------------------------------|
   "Momma cut out pictures of houses for years..."


E|----------------------------------------------------------------------------------|
B|----------------------------------------------------------------------------------|
G|----------------------------------------------------------------------------------|
D|-----0------0-----0----0------0------0-----0------0--------0------0------0------0-|
A|--0-----0-----0-----0-------------------------------------------------------------|
E|--------------------------3------3------3-----3-------3------3------3------3------|


E|----------------------------------------------------|
B|----------------------------------------------------|
G|----------------------------------------------------|
D|-----0------0-----0----0------2------2-----2------2-|      Back to chorus
A|--0-----0-----0-----0-----0------0------0-----0-----|
E|----------------------------------------------------|

----------
-Bridge 2-
----------

E|------------------------------------------------------------------------------------|
B|------------------------------------------------------------------------------------|
G|------------------------------------------------------------------------------------|
D|-----0------0-----0----0------0------0-----0------0--------0------0------0------0---|
A|--2-----2-----2-----2----------------------------------2------2------2------2-------|
E|---------------------------3------3------3-----3------------------------------------|
    "You leave home, you move on..."


E|----------------------------------------------------|
B|----------------------------------------------------|
G|----------------------------------------------------|
D|-----0------0-----0----0------2------2-----2------2-|      Back to chorus
A|--------------------------0------0------0-----0-----|
E|--3-----3------3----3-------------------------------|





Comments


Popular Miranda Lambert tabs & chords
All Kinds Of Kinds Chords
All Kinds Of Kinds 1 Chords
Down Chords
Me And Your Cigarettes 1 Chords
Nobody's Used To Be Chords
Nobodys Fool 1 Chords
Thats The Way That The World Goes Round Chords
Wichita Falls Chords
Dry Town Ukulele
Look At Miss Ohio Ukulele


Song lyrics



↑ Back to top | Tablatures and chords are parodies/interpretations of the original songs. You may use it for private study, scholarship, research or language learning purposes only
© 2014 AZChords.com Contact us | Privacy policy | DMCA | Add/correct tabs | Request tabs | Top 50 tabs