» » »

Psalm Tabs (ver.3)

Artists:  A B C D E F G H I J K L M N O P Q R S T U V W X Y Z # 

Psalm Tabs (ver.3)

Ministry
Rating:
3/5 (1 vote)

Hard to play? Try these video lessons and learn fast.
                "(9)
Ministry - Psalm 69

Intro:
E----------------------|
B----------------------|
G----------------------|
D---0--0-----------13--|
A---0--0-----------13--|
D---0--0---0-0-0---13--|
           . . .

Main riff:
E------------------------------------------------------------------------|
B------------------------------------------------------------------------|
G------------------------------------------------------------------------|
D--------------6//5--------------------------------6//5------------------|
A--------------4//3--------------5//6--------------4//3---5--6---5--3----|
D-0-0--0-0-0-0------0-0--0-0-0-0-5//6-0-0--0-0-0-0------0-5//6-0-5//3----|
  . .  . . . .      . .  . . . .      . .  . . . .      .      .

chorus
E------------------------------------------------------------------------|
B------------------------------------------------------------------------|
G------------------------------------------------------------------------|
D------------------------------------6-----------------------------------|
A--0----------0----------0-----------4-----------------------------------|
D--0--0-0-0-0-0--0-0-0-0-0--0-0-0-0--------------------------------------|
      . . . .    . . . .    . . . .

outro
E--------------------------------|
B--------------------------------|
G--------------------------------|
D---7-7-7--6-6-6--5-5-5--2-2-2---|
A---5-5-5--4-4-4--3-3-3--0-0-0---|
E--------------------------------|

Forgive me if i'm wrong but i did this tab in like 10 minutes...Atleast it is much
better than any other tab i could find of this song.

Anyways great band, good tune, heck yes and here it is

(any input would be appreciated seeing as how i probably got bits of this tab wrong)
"            
Hard to play? Try these video lessons and learn fast. | Correct




comments powered by Disqus
↑ Back to top | Tablatures and chords are parodies/interpretations of the original songs. You may use it for private study, scholarship, research or language learning purposes only