» » »

Psalm Bass tabs (ver.1)

Artists:  A B C D E F G H I J K L M N O P Q R S T U V W X Y Z # 

Psalm Bass tabs (ver.1)

Ministry
Rating:
0/5 (0 votes)

Hard to play? Try these video lessons and learn fast.
                Intro

|--------------  repeat this a bunch of times then other part
|--------------
|--------------
|-2*-----2-2-0*

Verse

|------------------------------------------  do this like 6 times then go to chorus
|------------------------------------------
|------------------------------------------
|-0-0-0-6-5-0-0-0-5-6-0-0-0-6-5-4-5-4-5-5-4

Chorus

|---------------------------------
|---------------------------------
|-----------------5--------------5    
|-3-3-3-3-3-3-3-3--3-3-3-3-3-3-3--

Yeah i'm horrible at the orders,Ministry isn't really known so i'm trying to help a little,see you later
            
Hard to play? Try these video lessons and learn fast. | Correct




comments powered by Disqus
↑ Back to top | Tablatures and chords are parodies/interpretations of the original songs. You may use it for private study, scholarship, research or language learning purposes only