» » »

Mighty Mighty Bosstones, Think Again Bass tabs (ver.1)

Artists:  A B C D E F G H I J K L M N O P Q R S T U V W X Y Z # 

Think Again Bass tabs (ver.1)

Mighty Mighty Bosstones Tabs
Rating:
3/5 (1 vote)
Think Again lessons Tabs too difficult? Try these video lessons and learn fast
                I'd just like to say- this is one of my favorite songs by the Bosstones I've never really heard the minor threat version but I decided to tab this out so any one who likes this can get a rough idea of how its done. also this may not be right but it pretty close

Starts with guitar then is joined by bass(well you should know the song!)
	Repeat 4 times
G:------------------------------|---------------------------------
D:------------------------------|---------------------------------
A:--1---------------------------|----1------------------------------
E:-------2----4-----2---2------|--------0-----1-----------------------

		Then 3 times
G:---------------------------------------------------------------
D:---------------------------------------------------------------
A:---------------------------------------------------------------
E:----4--4--6---------4---4----6--------------------------------
Can be played 4 than 1 one the a string
		then
G:---------------------------------------------------------------
D:---------------------------------------------------------------
A:----1------0------------1----------0---------------------------
E:---------------------------------------------------------------

	Then when the saxes and bone play:
G:---------------------------------------------------------------
D:---------------------------------------------------------------
A:----1-----------------------------1------------------------------
E:-----------1------3---1---1------------1-----3------1----1---

   Also try it like this it may sound better to you
G:-------------------------------|--------------------------------
D:--------------------------------|-------------------------------
A:---1---------------------------|-1--------------------------------
E:-------1------4-----1---1-----|------1----2---------------------------
            

comments powered by Disqus
↑ Back to top | Mighty Mighty Bosstones Bass for Think Again. Lyrics for acoustic guitar and electric guitar. Tablatures and chords are parodies/interpretations of the original songs. You may use it for private study, scholarship, research or language learning purposes only