» » »

Mighty Mighty Bosstones, Rascal King Bass tabs (ver.1)

Artists:  A B C D E F G H I J K L M N O P Q R S T U V W X Y Z # 

Rascal King Bass tabs (ver.1)

Mighty Mighty Bosstones Tabs
 Rating:
4.3/5 (6 votes)
Rascal King lessons Tabs too difficult? Try these video lessons and learn fast
                Band: Mighty Mighty BossToneS


Intro/Verse

G:------------------------------------------------
D:-----6666------------------4444--------6666-----
A:-444------------6666---666----------------------
E:------------444-------------------444-----------

G:------------------------------------------------
D:-----6666-----------------------------6666------
A:-444------------6666-------4444-----------------
E:------------444--------222--------444-----------

Transition Into Choruses/Third Verse

G:--------------
D:--------------
A:-2222222------
E:--------------


Chorus

G:-----------------------------------------------------------
D:----33-66-33-----44-88-44-----66-1010-66-------------------
A:-44-----------66-----------88-------------66-1010-99-66----
E:-----------------------------------------------------------

Bridge

G:---------------------------------------
D:----6------------------8--------6666---
A:-44---4------6-----666---6-------------
E:----------44---4-------------44--------


G:---------------------------------------------------------------
D:----6---------------------------6666--------------------------------
A:-44---4------6---------4--------------------------------------------
E:----------44---4---222---2---44-----------------------------------------


Right Before The Final Chorus, Joe Ends On The Second Fret
A String...Then There's A Pause And He Encoporates A Slide
Which I Do From The 10th Fret (A String) Right Into The 
Chorus...

Well That Is Really Close, I Couldn't Even Understand The
Other Version On The Net So I Did This For Anyone Who Had
The Same Problem.

Enjoy!

Adam Marish
The Royal Noise Brigade
            
Submit corrections

comments powered by Disqus
↑ Back to top | Mighty Mighty Bosstones Bass for Rascal King. Lyrics for acoustic guitar and electric guitar. Tablatures and chords are parodies/interpretations of the original songs. You may use it for private study, scholarship, research or language learning purposes only