» » »

Hope I Never Lose My Wallet Bass tabs (ver.1)

Artists:  A B C D E F G H I J K L M N O P Q R S T U V W X Y Z # 

Hope I Never Lose My Wallet Bass tabs (ver.1)

Mighty Mighty Bosstones
Rating:
0/5 (0 votes)

Hard to play? Try these video lessons and learn fast.
                This is a transcription of the horn parts for The Mighty Mighty BossToneS' 'Hope I Never Lose My Wallet' from "Devil's Night Out'.

Intro:
Play this faster and faster each time.

G|-1--------------------------
D|-----4-2-4-2---2----246424--
A|-------------6--------------
E|----------------------------


...'Hope I Never Lose My Wallet!'

G|-4~-2~----4---4---4---4-4---
D|--------2---2---2---2-----2-
A|----------------------------
E|----------------------------


Yay. Go, BossToneS, Go.
            
Hard to play? Try these video lessons and learn fast. | Correct




comments powered by Disqus
↑ Back to top | Tablatures and chords are parodies/interpretations of the original songs. You may use it for private study, scholarship, research or language learning purposes only