» » »

Michael Andrews, Mad World Tabs (ver.3)

Artists:  A B C D E F G H I J K L M N O P Q R S T U V W X Y Z # 

Mad World Tabs (ver.3)

Michael Andrews Tabs
Rating:
0/5 (0 votes)
Mad World lessons Tabs too difficult? Try these video lessons and learn fast
                e|----------------|----------------|----------------|----------------|
b|----------------|--0--0---0------|----------------|----------------|
g|-------0-0------|------------0---|--2-2--2--------|--2-2--2--0-----|
d|---2-2-----2-2--|----------------|----------4-----|------------4-2~|
a|----------------|----------------|----------------|----------------|
e|----------------|----------------|----------------|----------------|

e|----------------|----------------|----------------|----------------|
b|----------------|--0-0---0-------|----------------|----------------|
g|--------0-0-----|-----------0----|-2-2---2--------|-2-2--2--0------|
d|~2--2-2-----2-2-|----------------|----------4-----|------------4-2~|
a|----------------|----------------|----------------|----------------|
e|----------------|----------------|----------------|----------------|

e|---------------------------------|---------------------------------|
b|--------------------------0--0---|--2----------2---2---------------|
g|-------------------0--0----------|-----2----2---------2--2---------|
d|~2------2-----2------------------|---------------------------------|
a|---------------------------------|---------------------------------|
e|---------------------------------|---------------------------------|

e|---------------------------------|---------------------------------|
b|-------------------------0---0---|--2------------2----2------------|
g|-----------------0---0-----------|------2----2------------2---2----|
d|----2----2---2-------------------|---------------------------------|
a|---------------------------------|---------------------------------|
e|---------------------------------|---------------------------------|

e|----------------|----------------|----------------|----------------|
b|----------------|----------------|----------------|----------------|
g|----------0-----|----------------|--------0-------|----------------|
d|---2---------2~~|~~2-------------|-------------2~~|~~2-------------|
a|----------------|----------------|----------------|----------------|
e|----------------|----------------|----------------|----------------|
            
Submit corrections

comments powered by Disqus
↑ Back to top | Michael Andrews Tabs for Mad World. Lyrics for acoustic guitar and electric guitar. Tablatures and chords are parodies/interpretations of the original songs. You may use it for private study, scholarship, research or language learning purposes only