» » »

Mad World Tabs (ver.2)

Artists:  A B C D E F G H I J K L M N O P Q R S T U V W X Y Z # 

Mad World Tabs (ver.2)

Michael Andrews
Rating:
5/5 (3 votes)

Hard to play? Try these video lessons and learn fast.
                -----------------------------------------------------------------------------
                             Mad World - Michael Andrews
-----------------------------------------------------------------------------

easy on me and give me any emails telling me what you thought.

Tuning: EADGBe (Capo on the 1st fret)

Intro/Fill (The chorus is being played during the intro)
e|----------------------------|-------------------------|--------------------|
B|----12----------------------|----12-------------------|--------------------|
G|-12----12-14----12----------|-12----12-14----11-12-14-|--------------------|
D|-------------14----12-11----|-------------14----------|--------------------|
A|-------------------------12-|-------------------------|--------------------|
E|-0--------------------------|-------------------------|--------------------|

For the verse, I pick the chords with my fingers to make them sound like piano chords, 
follow the way I do it, or play around with the chords yourself, a lot of fun is in 
it out!

Verse
e|------------------3---3------------2---2------------------|
B|---0---0----------3---3------------3---3------------2---2-|
G|---0---0----------0---0------------2---2------------2---2-|
D|---2---2----------0---0----------0---0--------------2---2-|
A|--------------------------------------------------0---0---|
E|-0---0----------3---3-------------------------------------|

Chorus x6(Last two times, the fill is played)
e|--------------------------|
B|---0---0------------2---2-|
G|---0---0------------2---2-|
D|---2---2------------2---2-|
A|------------------0---0---|
E|-0---0--------------------|

Fairly Standard Song (End on Chorus):

Intro
Verse
Chorus/Fill
Verse
Chorus/Fill
            
Hard to play? Try these video lessons and learn fast. | Correct




comments powered by Disqus
↑ Back to top | Tablatures and chords are parodies/interpretations of the original songs. You may use it for private study, scholarship, research or language learning purposes only