» » »

The Unforgiven Ii Tabs (ver.2)

Artists:  A B C D E F G H I J K L M N O P Q R S T U V W X Y Z # 

The Unforgiven Ii Tabs (ver.2)

Metallica
Rating:
0/5 (0 votes)

Tabs too difficult? Try these video lessons and learn fast.
                THE UNFORGIVEN II from the album RELOAD

This song was pretty tricky the figure out so everything might not be
Correct but here goes. I left the solo for yourselves the figure out.

tune down 1/2 step.


Intro:

e-----------------------------------------------------I
b-----------------------------------------------------I
g-2-2-4-5-7\5/7~-/9-7-5/7\5-7-2-4-5-7\5/7~-/7-5-------I
d-2---------------------------------------------------I
a-0-0-2-3-5\3/5~-/7-5-3/5\3-5-0-2-3-5\3/5~-/7-3-0h2p0-I
E-----------------------------------------------------I


Verse:

e-----0-----------------------------------I
b-------1-------8---8-8---------0-1/3\1-0-I
g---------------7b9---9r7-7b9r7---2/4\2-0-I
d---2---------2---------------------------I
a-0-----0-2-3-----------------------------I
E--------------------(3)--------(0)-------I


The third verse is the base tones of the other ones with a third
Guitar playing something strange added.

End verse:

e-----1---------------------------5-I
b-------3-------------------------5-I
g-------------2-3-----------------5-I
d---0-------0---------------------7-I
a-0-------0---------2-3-5---2-3-5---I
E-----------------3-------1---------I


Chorus:

e--------------------------------------------I
b--------------------------------------------I
g-4h5-5-5-5--5p4-4-4-4--5h7-7-7-7--7p5-5-5-5-I
d-5---5-5-5--5---5-5-5--7---7-7-7--7---7-7-7-I repeat once
a--------------------------------------------I
E--------------------------------------------I

e--------------------------------------------------I
b--------------------------------------------------I
g-4h5-5-5-5--5p4-4-4-4--5h7-7-7-7--/7-5-4-5~-4-----I
d-5---5-5-5--5---5-5-5--7---7-7-7--------------7~\-I
a--------------------------------------------------I
E--------------------------------------------------I

Chorus fill in:

e----------------------------------I
b------------------------------3-5-I
g-2-4-5--5--5-5-4-0-----2-4-5------I
d----------------------------------I
a----------------------------------I
E----------------------------------I


End:

e---------------------------------------I
b---------------------------------------I
g-4-5---5-4---4-5---7-4---4-5---7-4-----I
d-5-5---5-5---5-5---5-5---5-5---5-5---5-I
a-------------------------------------5-I
E-------------------------------------3-I


Order:

Intro
Verse, 6 times
Intro
Verse, 4 times
End verse
Chorus, 2 times
Intro
Verse, 4 times
End verse
Chorus, 2 times
During solo play Intro once and Chorus once
Intro
Verse, 3 times
End verse
Chorus, 2 times
Chorus, 2 times with Chorus fill in
End

LYRICS

Lyrics:

Lay beside me, tell me what they've done
And speak the words I wanna hear, to make my demons run
The door is locked now, but it's open if you're true
If you can understand the me, than I can understand the you

Lay beside me, under wicked sky
The black of day, dark of night, we share this paralyze
The door cracks open, but there's no sun shining through
Black heart scarring, darker still, but there's no sun shining through
No, there's no sun shining through
No, there's no sun shining

What I've felt, what I've known
Turn the pages, turn the stone
Behind the door
Should I open it for you?

Yeah, what I've felt, what I've known
Sick and tired, I stand alone
Could you be there, 'cuz I'm the one who waits for you
Or are you unforgiven too?

Come lay beside me, this won't hurt, I swear
She loves me not, she loves me still, but she'll never love again
She lay beside me, but she'll be there when I'm gone
Black hearts scarring darker still, yes, she'll be there when I'm gone
Yes, she'll be there when I'm gone
Dead sure she'll be there

What I've felt, what I've known
Turn the pages, turn the stone
Behind the door
Should I open it for you?

Yeah, what I've felt, what I've known
Sick and tired, I stand alone
Could you be there, 'cuz I'm the one who waits for you
Or are you unforgiven too?

Lay beside me, tell me what I've done
The door is closed, so are your eyes
But now I see the sun, now I see the sun
Yes, now I see it

What I've felt, what I've known
Turn the pages, turn the stone
Behind the door
Should I open it for you?

Yeah, what I've felt, what I've known
So sick and tired, I stand alone
Could you be there, 'cuz I'm the one who waits
The one who waits for you

Oh, what I've felt
Oh, what I've known

I take this key
And I bury it in you
Because you're unforgiven too

Never free
Never me
'cuz you're unforgiven too
            
Tabs too difficult? Try these video lessons and learn fast.




comments powered by Disqus
↑ Back to top | Tablatures and chords are parodies/interpretations of the original songs. You may use it for private study, scholarship, research or language learning purposes only