>
 >
The Unforgiven Ii

The Unforgiven Ii Guitar Tabs

Metallica - The Unforgiven Ii chords, tabs, tablatures, lyrics

Guitar lessons | Add/correct | Request | Top 50 tabs Artists:  A B C D E F G H I J K L M N O P Q R S T U V W X Y Z 0-9

The Unforgiven Ii Guitar Tabs – Metallica

CD, Sheet music, Poster

Do you like The Unforgiven Ii? Share with your friends now
TabsTabs v2Tabs v3
Metallica  Unforgiven II
Alright, Ive got a Floyd Rose on my guitar, so it sucks tuning down. So I tabbed this solo out in standard tuning for everyone else out there that hates tuning down. This should be pretty accurate.



|----------------------------------------------------------|
|-------------------------------------12-14b16r14-12----12-|
|-1-1-3-6b8r6-4-3-4-3h4p3---3-----/13----------------13----|
|-------------------------6---4----------------------------|
|----------------------------------------------------------|
|----------------------------------------------------------|

|-----14---------14---------14-------------------------|
|-14b----14b-14b----14b-14b----14b---14b-----12----12--|
|-----------------------------------------------13-----|
|------------------------------------------------------|
|------------------------------------------------------|
|------------------------------------------------------|

|--14b--14b--14b--14b-----16----------16------------16-----|
|----------------------------16-19b20----1619b20------16--|
|----------------------------------------------------------|
|----------------------------------------------------------|
|----------------------------------------------------------|
|----------------------------------------------------------|

|--------------------------------------------------------------------|
|-19b--16-------------18-------18------18----------------------18----|
|----------18-16------18-16----18-16---18-16-----16-18b--16----18-16-|
|----------------18---------18-------18-------18------------18-------|
|--------------------------------------------------------------------|
|--------------------------------------------------------------------|

|-------------------------------|
|-------------------------------|
|---4---------------------------|
|-6---6-4---4-------------------|
|---------6---6-5-2---4-2-------|
|-------------------4-----4-----|





Comments


Popular Metallica tabs & chords
Bad Seed Bass Tabs
Blackened 4 Bass Tabs
Fight Fire With Fire 2 Bass Tabs
The Call Of The Ktulu Bass Tabs
Low Mans Lyrics Tabs
Nothing Else Matters Unplugged Tabs
Pulling Teeth Tabs
Ride The Lightning 2 Tabs
Sweet Amber 2 Tabs
The Outlaw Torn 2 Tabs


Song lyrics



↑ Back to top | Tablatures and chords are parodies/interpretations of the original songs. You may use it for private study, scholarship, research or language learning purposes only
© 2014 AZChords.com Contact us | Privacy policy | DMCA | Add/correct tabs | Request tabs | Top 50 tabs