» » »

Metallica, Stone Cold Crazy Tabs (ver.2)

Artists:  A B C D E F G H I J K L M N O P Q R S T U V W X Y Z # 

Stone Cold Crazy Tabs (ver.2)

Metallica Tabs
Rating:
0/5 (0 votes)
Stone Cold Crazy lessons Tabs too difficult? Try these video lessons and learn fast
                INTRO TREMLO
if you dont have a whammy bar then bend back and fourth
E|-----7b8----7b8----7b8----7b8---7b8v~-----------
B|------------------------------------------------
G|------------------------------------------------
D|------------------------------------------------
A|------------------------------------------------
E|------------------------------------------------

Chorus:

E|---------------------------------------------------------------------
B|---------------------------------------------------------------------
G|----0------------------------------0---------------------------------  X4
D|----0-------------------3----------0---------------------------------
A|------------------------1-----------------------------1-3-3-3-1-3-4-5
E|--------1-3-3-3-3-3-3-------------------1-3-3-3-3-3-3----------------


Then Singing:

while singing couple power chords:
E|---------------------------------------------------------------
B|---------------------------------------------------------------3
G|---------------------------------------------------------------0
D|------5----------5--5-----5-5-5-5----8----8---8----------------0
A|------5----------5--5-----5-5-5-5----8----8---8---drums-then:--
E|------3----------3--3-----3-3-3-3----6----6---6----------------
 
Repeat Chorus except play twice not 4x:
On second time accent 5 and stop
Then it goes into
E|-------------------------------
B|-------------------------------
G|------------------------------- 
D|-------------------------------
A|----5---6---7-8----------------
E|----3---4---5-6----------------

Then Being Played while second Guitar plays Solo:
E|-----------------------------------------------------------------
B|-----------------------------------------------------------------
G|-----------------------------------------------------------------
D|-------9-------9--------9-----------------9----------9-----9-9-9-
A|-------9-------9--------9-----------------9----------9-----9-9-9-
E|---7-7-----7-7------7-7----7-7-7-7-7-7-7--7--7-7-7-7---7-7---7-7-

E|------------------------------------------------
B|------------------------------------------------
G|------------------------------------------------
D|-------9-7--------------------------------------
A|-----------9-7----------------------------------
E|---------------10-7-----------------------------

Back to chorus but only play twice not 4x:
Then:

E|------------------------------------------------
B|--------------------------------8---------------
G|-----------------------7/-10-10-12-7------------
D|----5------------------5/-8--8-----5------------
A|----5-------------------------------------------
E|----3---------3###------------------------------
Drums then play this after that:
E|------------------------------------------------
B|------------------------------------------------
G|------5--Ring--5-Accent--drums-3--4-------------
D|------5--------3---------------3--4-------------
A|------3--------3---------------1--2-------------
E|------------------------------------------------
While second Guitar is playing solo
E|-----------------------------------------------------------------
B|-----------------------------------------------------------------
G|----------------------------------------------------------------- 
D|-------9-------9--------9-----------------9----------9-----9-9-9-
A|-------9-------9--------9-----------------9----------9-----9-9-9-
E|---7-7-----7-7------7-7----7-7-7-7-7-7-7--7--7-7-7-7---7-7---7-7-
																	                                                    x3
E|------------------------------------------------
B|------------------------------------------------
G|------------------------------------------------
D|-------9-7--------------------------------------
A|-----------9-7----------------------------------
E|---------------10-7-----------------------------
Play Both in that order


Back to Chorus play it twice:
After you play that go into this:
E|------------------------------------------------
B|------------------------------------------------
G|------------------------------------------------
D|-------5##-X-X-X--------------5-Acent-----------
A|-------5##-X-X-X--------------3-----------------
E|-------3##-X-X-X--------------3-----------------
Then This:
E|------------------------------------------------
B|------------------------------------------------
G|-------5------------5-Ring------5---------------
D|-------5------------3-----------3---------------
A|-------3------------3-----------3---------------
E|------------------------------------------------
And Ends With Chorus Fading Out:
            

comments powered by Disqus
↑ Back to top | Metallica Tabs for Stone Cold Crazy. Lyrics for acoustic guitar and electric guitar. Tablatures and chords are parodies/interpretations of the original songs. You may use it for private study, scholarship, research or language learning purposes only