>
 >
Stone Cold Crazy

Stone Cold Crazy Guitar Tabs

Metallica - Stone Cold Crazy chords, tabs, tablatures, lyrics

Guitar lessons | Add/correct | Request | Top 50 tabs Artists:  A B C D E F G H I J K L M N O P Q R S T U V W X Y Z 0-9

Stone Cold Crazy Guitar Tabs – Metallica

CD, Sheet music, Poster

Do you like Stone Cold Crazy? Share with your friends now
TabsTabs v2
I got this tab from MetalliTabs.com, so I dont no how correct it is
Tempo=252
  A.H.
|---------------|------------|------------|------------|----------|
|----\----*---/-|-\----*---/-|-\----*---/-|-\----*---/-|----------|
|--0---\-2.5-/--|---\-1.5-/--|---\--1--/--|---\-0.5-/--|-(0)-~-~--|
|--------\--/---|-----\--/---|-----\--/---|-----\--/---|----------|
|---------------|------------|------------|------------|----------|
|---------------|------------|------------|------------|----------|
    *: dive w/ bar

|---------------|------------|------------|------------|----------|
|---------------|------------|------------|------------|----------|
|---------------|------------|------------|------------|----------|
|--5------------|--(5)-------|--(5)-------|--(5)-------|--(5)-----|
|--3------------|--(3)-------|--(3)-------|--(3)-------|--(3)-----|
|---------------|------------|------------|------------|----------|


|---------------|---------------|----------------|-------*--------|
|---------------|---------------|----------------|-------1--------|
|--(0)----------|---------------|----------------|-------/--------|
|----------0----|--(0)----------|--(0)-----------|--(0)-/---------|
|---------------|---------------|----------------|----------------|
|---------------|---------------|----------------|----------------|
						*: pull bar up 1 tone

|---------------|---------------|----------------|----------------|
|---------------|---------------|----------------|----------------|
|---------------|---------------|----------------|-------------0--|
|--(5)----------|--(5)----------|--(5)-----------|--(5)--------0--|
|--(3)----------|--(3)----------|----------------|-------------0--|
|---------------|---------------|----------------|----------------|

 Rhy Fig 1
||--------------------------|--------------------|
||--------------------------|--------------------|
||o-------------------------|--------------------|
||o----------------------3--|--(3)---------------|
||-----------------------1--|--(1)---------------|
||---1h3--3--3--3--3--3-----|--------------------|
	  PM...........|

|------------------------|-------------------|
|------------------------|-------------------|
|------------------------|-------------------|
|------------------------|-------------------|
|-------------1h3--3--3--|--(3)--2--3--4--5--|
|--1h3--3--3-------------|-------------------|
       PM...|			PM.........|

|-------------------------|--------------------|
|-------------------------|--------------------|
|-------------------------|--------------------|
|----------------------3--|--(3)---------------|
|----------------------1--|--(1)---------------|
|--1h3--3--3--3--3--3-----|--------------------|
	PM...........|
				   end Rhy Fig 1
|------------------------|--------------------||
|------------------------|--------------------||
|------------------------|-------------------o||
|------------------------|-------------------o||
|-------------1--3----3--|--(3)--2--3--4--5---||
|--1h3--3--3-------------|--------------------||
	PM.................................|

1st Verse
 Sleeping very soundly on a Saturday morning I was dreaming I was Al Capone
|--------------------------|------------------------|------------------|-----------|
|--------------------------|------------------------|------------------|-----------|
|--------------------------|------------------------|------------------|-----------|
|--5-----------------------|------------------------|------------------|-----------|
|--------------------------|------------------------|------------------|-----------|
|--3-----------------------|------------------------|------------------|-----------|

 Rumor going round gotta clear out of town, smelling like a dry fishbone
|-----------------------|--------------------|-----------------------|-----------|
|-----------------------|--------------------|-----------------------|-----------|
|-----------------------|--------------------|-----------------------|-----------|
|-----------------------|--------------------|-----------------------|-----------|
|-----------------------|--------------------|-----------------------|-----------|
|-----------------------|--------------------|-----------------------|-----------|

 Here come the law gonna break down the door, carry me away once more
|-----------------------|--------------------|--------------------|-----------|
|-----------------------|--------------------|--------------------|-----------|
|-----------------------|--------------------|--------------------|-----------|
|-----------------------|--------------------|--------------------|-----------|
|--5--------------------|--------------5--5--|--(5)---------------|-----------|
|--3--------------------|--------------3--3--|--(3)---------------|-----------|

 Never, never, never want it anymore. Gotta get away from this stone cold floor
|-------------|---------------------|-------------------------|----------------------|
|-------------|---------------------|-------------------------|----------------------|
|-------------|---------------------|-------------------------|----------------------|
|--3----3-----|--3------------------|-------------------------|-------------5--5--5--|
|--1----1-----|--1------------------|-X\----X\----X\----X\----|-X/--X/--X/--3--3--3--|
|-------------|---------------------|-X\----X\----X\----X\----|-X/--X/--X/-----------|
				 pick slides

Chorus
	  Crazy			     stone cold crazy, you know.
|------------|-----------------|---------------|---------------|
|------------|-----------------|---------------|---------------|
|------------|-----------------|---------------|---------------|
|--5-------5-|----5------5--5--|--5------------|---------------|
|--3-------3-|----3------3--3--|--3------------|---------------|
|------------|-----------------|---------------|-----------10\-|

||--------------------------|--------------------|
||--------------------------|--------------------|
||o-------------------------|--------------------|
||o----------------------3--|--(3)---------------|
||-----------------------1--|--(1)---------------|
||---1h3--3--3--3--3--3-----|--------------------|
	  PM...........|

|------------------------|-------------------|
|------------------------|-------------------|
|------------------------|-------------------|
|------------------------|-------------------|
|-------------1h3--3--3--|--(3)--2--3--4--5--|
|--1h3--3--3-------------|-------------------|
       PM...|			PM.........|

|-------------------------|--------------------|
|-------------------------|--------------------|
|-------------------------|--------------------|
|----------------------3--|--(3)---------------|
|----------------------1--|--(1)---------------|
|--1h3--3--3--3--3--3-----|--------------------|
	PM...........|

|------------------------|--------------------||
|------------------------|--------------------||
|------------------------|-------------------o||
|------------------------|-------------------o||
|-------------1--3----3--|--(3)--2--3--4--5---||
|--1h3--3--3-------------|--------------------||
	PM.................................|

 Yeah!		 Guitar Solo 1
|------------X--|---------------------|------------------0----|
|------------X--|--10b12--------------|-(10)~-~-~(10)\---0----|
|------------X--|---------------------|------------------0----|
|---------------|---------------------|-----------------------|
|---------------|---------------------|-----------------------|
|---------------|---------------------|-----------------------|

		 Rhy Fig 2
|---------------|---------------------|-----------------------|
|---------------|---------------------|-----------------------|
|---------------|---------------------|-----------------------|
|----2----1--4--|--4----4----------4--|--------4--------------|
|----0----3--2--|--2----2----2--2--2--|--2--2--2----2--0----1-|
|---------------|---------------------|-----------------------|

|--7--9--7--9--7h9p7------|---------7-------7--7h10p-|
|--------------------9-7--|--10b12---10b12---0-------|
|-------------------------|--------------------------|
|-------------------------|--------------------------|
|-------------------------|--------------------------|
|-------------------------|--------------------------|


|-------------------------|--------------------------|
|-------------------------|--------------------------|
|-------------------------|--------------------------|
|--4----------------------|--------------------------|
|--2----2--2--2--2--2--2--|--2--2--2--2--2--0--0--1--|
|-------------------------|--------------------------|
	PM................................|

|-7--------------------------|--------------------------|
|---10-7-10-7h10p7---7-7-----|------------------------5-|
|------------------9-----9-7-|-9p7---7---9b12-----5--5--|
|----------------------------|-----9---9----------------|
|----------------------------|--------------------------|
|----------------------------|--------------------------|
   						   NH...|

|----------------------------|--------------------------|
|----------------------------|--------------------------|
|----------------------------|--------------------------|
|---------4------------4-----|--------4-----------4-----|
|--2------2------2--2--2-----|--2--2--2-----2--2--2-----|
|----------------------------|--------------------------|


|-------/---------------|------------------------|
|------/----------------|------------------------|
|--3--/-----------------|--(3)--------------0----|
|-----------------------|-------------------0----|
|-----------------------|-------------------0----|
|-----------------------|------------------------|
   NH, pull bar gradually up 3 tones
				    end Rhy Fig 2
|-----------------------|------------------------|
|-----------------------|------------------------|
|--2h4------2b3---------|------------------------|
|------------------4----|--(4)--2----------------|
|-----------------------|--------------5----2----|
|-----------------------|------------------------|


||--------------------------|--------------------|
||--------------------------|--------------------|
||o-------------------------|--------------------|
||o----------------------3--|--(3)---------------|
||-----------------------1--|--(1)---------------|
||---1h3--3--3--3--3--3-----|--------------------|
	  PM...........|

|------------------------|-------------------|
|------------------------|-------------------|
|------------------------|-------------------|
|------------------------|-------------------|
|-------------1h3--3--3--|--(3)--2--3--4--5--|
|--1h3--3--3-------------|-------------------|
       PM...|			PM.........|

|-------------------------|--------------------|
|-------------------------|--------------------|
|-------------------------|--------------------|
|----------------------3--|--(3)---------------|
|----------------------1--|--(1)---------------|
|--1h3--3--3--3--3--3-----|--------------------|
	PM...........|

|------------------------|--------------------||
|------------------------|--------------------||
|------------------------|-------------------o||
|------------------------|-------------------o||
|-------------1--3----3--|--(3)--2--3--4--5---||
|--1h3--3--3-------------|--------------------||
	PM.................................|

2nd verse
 Rainy afternoon, on a killer typhoon, and it's aplaying with my slide trombone.
|----------------------|-------------------------|------------------------------|
|----------------------|-------------------------|------------------------------|
|----------------------|-------------------------|------------------------------|
|----------------------|-------------------------|------------------------------|
|----------------------|-------------------------|------------------------------|
|--3-------------------|-------------------------|------------------------------|

		    Anymore, anymore, can't take it anymore.
|------------------|-----------------|----------------------|
|----X--X----3-----|--(3)\-----------|----------------------|
|----X--X----3-----|--(3)\-----------|----------------------|
|----X--X----3-----|--(3)\-----------|----------------------|
|------------------|-----------------|----------------------|
|------------------|-----------------|----------------------|

 Gotta get away from this stone cold floor.
|-------------------------|-------------------------|
|-------------------------|-------------------------|
|-------------------------|-------------------------|
|-------------------------|-------------------------|
|-X\----X\----X\----X\----|-X/----X/----X/----X/----|
|-X\----X\----X\----X\----|-X/----X/----X/----X/----|
 pick slides

	  Crazy			     stone  cold    crazy, you know.
|------------|-----------------|-------------------|----------------|
|------------|-----------------|-------------------|----------------|
|------------|-----------------|-------------------|----------------|
|--5-------5-|----5------5--5--|--5----------------|----------------|
|--3-------3-|----3------3--3--|--3----------------|----------------|
|------------|-----------------|-----0-dive w/ bar-|-slack----------|

		Guitar Solo 2
      Hey!	w/ Rhy Fig 2 (3 times)
|--------------|-------------|------------------|---------------|
|--------------|-------------|------------------|---------------|
|--------------|--4----------|--(4)------2------|--4------------|
|--3-----------|--4----------|--(4)------2------|--4------------|
|--1-----------|--2----------|--(2)------0------|--2------------|
|--------------|-------------|------------------|---------------|


|--------------|------------------|-------------------|---------------|
|--------------|------------------|-------------------|---------------|
|--------------|----------------X-|--9b11----9----7-~-|-(7)-~-~-~--0--|
|---------4~-~-|--(4)-----/9----X-|-------------------|---------------|
|--4/5~-~------|----------------X-|-------------------|---------------|
|--------------|------------------|-------------------|---------------|


|------------|----------------------|-------------------|-----------15h17-15--17-|
|--10b12--~--|-(10)-~-~--7-10p7-10--|-b12-----(10)-~-~--|-(10)~-~-/--------------|
|------------|----------------------|-------------------|-----------------(0)----|
|------------|----------------------|-------------------|------------------------|
|------------|----------------------|-------------------|------------------------|
|------------|----------------------|-------------------|------------------------|


|-19-19p17-15-17-15h17p15-15--|-14--------------------------------|
|-----------------------------|-----15-15-17--14--15p14----14-(0)-|
|-----------------------------|-------------------------16----(0)-|
|-----------------------------|-----------------------------------|
|-----------------------------|-----------------------------------|
|-----------------------------|-----------------------------------|


|-14h15------14----------14------|--------14------------------|
|--------17------15----------15--|-----------15----14h15------|
|--------------------16----------|--16----------16--------16\-|
|--------------------------------|----------------------------|
|--------------------------------|----------------------------|
|--------------------------------|----------------------------|


|-10/-16-----14-14-14-17-14-14-14-14-14-|-19--14--14-14-17-\4-/16--14--|
|---------14----------------------------|------------------------------|
|---------------------------------------|------------------------------|
|---------------------------------------|------------------------------|
|---------------------------------------|------------------------------|
|---------------------------------------|------------------------------|


|-19p16p14-14-14-19p17p14-14-14-|-19p17p14-14-19p17p14-\-7-/-14-14-|
|-------------------------------|----------------------------------|
|-------------------------------|----------------------------------|
|-------------------------------|----------------------------------|
|-------------------------------|----------------------------------|
|-------------------------------|----------------------------------|


|-19p17p14-14-14-19p17p14-14-14--19p--|-17p14-14-14-19p17p14-\-(0)----|
|-------------------------------------|------------------------(0)----|
|-------------------------------------|------------------------(0)----|
|-------------------------------------|-------------------------------|
|-------------------------------------|-------------------------------|
|-------------------------------------|-------------------------------|


|-19-19--21-19-17-19--12-14-12----------|-------------------------|
|------------------------------16-12-16-|-14--16--12--------------|
|---------------------------------------|------------14-11/23-\---|
|---------------------------------------|-------------------------|
|---------------------------------------|-------------------------|
|---------------------------------------|-------------------------|


|--------------------------|--------------------|
|--------------------------|--------------------|
|o-------------------------|--------------------|
|o----------------------3--|--(3)---------------|
|-----------------------1--|--(1)---------------|
|---1h3--3--3--3--3--3-----|--------------------|
	  PM...........|

|------------------------|-------------------|
|------------------------|-------------------|
|------------------------|-------------------|
|------------------------|-------------------|
|-------------1h3--3--3--|--(3)--2--3--4--5--|
|--1h3--3--3-------------|-------------------|
       PM...|			PM.........|

|-------------------------|--------------------|
|-------------------------|--------------------|
|-------------------------|--------------------|
|----------------------3--|--(3)---------------|
|----------------------1--|--(1)---------------|
|--1h3--3--3--3--3--3-----|--------------------|
	PM...........|

|------------------------|--------------------|
|------------------------|--------------------|
|------------------------|-------------------o|
|------------------------|-------------------o|
|-------------1--3----3--|--(3)--2--3--4--5---|
|--1h3--3--3-------------|--------------------|
	PM.................................|

3rd verse
 Walking down the street shooting people that I meet, full loaded Tommy gun
|---------------------------|-------------------|---------------------|-----------|
|---------------------------|-------------------|---------------------|-----------|
|---------------------------|-------------------|---------------------|-----------|
|--5------------------------|-------------------|---------------------|-----------|
|---------------------------|-------------------|---------------------|-----------|
|--3------------------------|-------------------|---------------------|-----------|

 Here come the deputy try  fucking gettin' me,   gotta fuckin' get up and run
|--------------------|--------------------------|--------------------------|
|--------------------|--------------------------|--------------------------|
|--------------------|--------------------------|--------------------------|
|--------------------|--------------------------|--------------------------|
|-----------------5--|--X--X--X--X--X--X--X--X--|--X--X--X--X--X--X--X--X--|
|-----------------3--|--X--X--X--X--X--X--X--X--|--X--X--X--X--X--X--X--X--|

    They     got    the     sirens    loose,	     I'm running right
|--------------------------|----------------|--------------------------|
|--------------------------|----------------|--------------------------|
|--------------------------|----------------|--------------------------|
|--------------------------|----------------|--------------------------|
|--X--X--X--X--X--X--X--X--|----X------X----|--X--X--3--X--X--X--3--X--|
|--X--X--X--X--X--X--X--X--|----X------X----|--X--X--1--X--X--X--1--X--|

    out    of    juice			They're gonna  put me in a cell. If I
|--------------------------|--------------------------|----------------------|
|--------------------------|--------------------------|----------------------|
|--------------------------|--------------------------|----------------------|
|--------------------------|--------------------------|--3-------------------|
|--X--X--3--X--X--X--3--X--|--X--X--3--X--X--X--3--X--|--1-------------------|
|--X--X--1--X--X--X--1--X--|--X--X--1--X--X--X--1--X--|----------------------|

 can't go to heaven, let me go to hell.			Cra-
|-------------------|------------------|-----------|-----------|
|-------------------|------------------|-----------|-----------|
|-------------------|------------------|-----------|-----------|
|-------------------|--X-\-------------|-----------|--5--------|
|-------------------|--X-\-------------|-----------|--3--------|
|-------------------|--X-\-------------|--15-\-----|-----------|
		   pick slide
 zy
|-------------------|------------|------------|--------------|
|-------------------|------------|------------|--------------|
|-------------------|------------|------------|--------------|
|----5----5----5----|--5---------|------------|--------------|
|----3----3----3----|--3---------|------------|--X--X--X--X--|
|-------------------|------------|------------|--X--X--X--X--|

							Yeah!
|--------------------------|--------------------|
|--------------------------|--------------------|
|o-------------------------|--------------------|
|o----------------------3--|--(3)---------------|
|-----------------------1--|--(1)---------------|
|---1h3--3--3--3--3--3-----|--------------------|
	PM...........|

|------------------------|--------------------|
|------------------------|--------------------|
|------------------------|-------------------o|
|------------------------|-------------------o|
|-------------1--3----3--|--(3)--2--3--4--5---|
|--1h3--3--3-------------|--------------------|
	PM.................................|

|-------------------------|------------------------------------|
|-------------------------|----------------------------------6-|
|-------------------------|---------------------------6-8b10---|
|----------------------3--|--(3)------------------6-8----------|
|----------------------1--|--(1)--------4-6-4h6/8--------------|
|--1h3--3--3--3--3--3-----|---------4h6------------------------|
	PM...........|

|-------------------------|------------------------------------|
|-------------------------|------------------------------------|
|-------------------------|------------------------------------|
|-------------------------|--3---------------------------------|
|-------------------------|--1---------------------------------|
|-------------------------|--//--------------------------------|
			tremolo pick

|-----------8p6-----------------------------|
|-9p6-6-9p6-----9p6-6h9p6h8p6-----6---------|
|-----------------------------8b9---6---6-8-|
|-------------------------------------8-----|
|-------------------------------------------|
|-------------------------------------------|


|-------------------------------------------|
|-------------------------------------------|
|-------------------------------------------|
|--3----------------------------------------|
|--1----------------------------------------|
|--//---------------------------------------|


|------------------------------------------------|
|------------------------------------------------|
|-6b8---6b7-8-6b8---6b7-8-6b8-8-6b7-8b10r8p6---6-|
|-----8-----------8--------------------------8---|
|------------------------------------------------|
|------------------------------------------------|


|------------------------------------------------|
|------------------------------------------------|
|---------------------------------3--------------|
|------------------------------3-----------------|
|--1h3p1-3b5r3-----1h3p5--3/5--------------------|
|---------------------------------------------1--|


|-------------------------------|---------------------|
|-------------------------------|---------------------|
|-------------------------------|---------------------|
|-8--6--------------------------|------------0.5--0.5-|
|------8-6\4-6-6b8r6-4---4------|--4b5--4----/-\--/-\-|
|----------------------6---6----|---------------------|
					*: pull bar up

|-------------------------------|---------------------|
|-------------------------------|---------------------|
|-------------------------------|---------------------|
|-----3--3-------------------3--|--(3)----------------|
|-1---1--1-------------------1--|--(1)----------------|
|---1----//---------------------|---------------------|


|---------------|------------|------------------|
|---------------|------------|------------------|
|---------------|------------|------------------|
|-0.5------h6---|-(6)--------|------------------|
|-/-\-~-~-~-~-~-|-(4)--------|--4tr(6)-~-~-~----|
|---------------|------------|--------------2-0-|
	     both notes vib.

|---------------|------------|---------------X--|
|---------------|------------|---------------X--|
|---------------|------------|---------------X--|
|--(3)----------|--(3)-------|----X\------------|
|--(1)----------|--(1)-------|----X\------------|
|---------------|------------|----X\------------|
				pick slide

|-------------------------------------|---------------------|
|-------------------------------------|---------------------|
|-------------------------------------|---------------------|
|-------------------------------------|---------------------|
|-------------------------------------|----------5--(5)\----|
|-1h3--1h3--1h3--1h3--1h3--1h3--1h3-~-|--(3)~-~--3--(3)\----|


|-------------------------------------|---------------------|
|-------------------------------------|---------------------|
|-------------------------------------|---------------------|
|-------------------------------------|---------------------|
|---------------5---5-------------5---|--(5)----------------|
|---3---3---3---3---3-------------3---|--(3)----------------|





Comments


Popular Metallica tabs & chords
Fixxxer Bass Tabs
2 Bloody Horses Tabs
Die Die My Darling 1 Tabs
Enter Sandman Intro Tabs
I Disappear Tabs
My World 1 Tabs
Nothing Else Matters Full With Tabs
Nothing Else Matters Unplugged Tabs
To Live Is To Die 1 Tabs
We Are A Happy Family Tabs


Song lyrics



↑ Back to top | Tablatures and chords are parodies/interpretations of the original songs. You may use it for private study, scholarship, research or language learning purposes only
© 2014 AZChords.com Contact us | Privacy policy | DMCA | Add/correct tabs | Request tabs | Top 50 tabs