» » »

Metallica, Shoot Me Again Tabs (ver.3)

Artists:  A B C D E F G H I J K L M N O P Q R S T U V W X Y Z # 

Shoot Me Again Tabs (ver.3)

Metallica Tabs
 Rating:
4/5 (4 votes)
Shoot Me Again lessons Tabs too difficult? Try these video lessons and learn fast
                
ahh metallica…poetry in motion
 
Drop C Tuning drop D then down another step)
 
Intro (Guitar Kirk) with wah-wah
d----------------------------
A----------------------------
F--x-x-x-x-x-x-x-x-x-x-x-x---
C--x-x-x-x-x-x-x-x-x-x-x-x---
G----------------------------
C----------------------------
 
Guitar 1 (0:19)
d----------------------------
A----------------------------
F----------------------------
C----------------------------  
G--5h6-5h6-5h6-5h6-5h6-5h6---
C--0---0---0---0---0---0-----
 
..then the bass
 
Guitar 1 continued…
d------------------
A------------------
F------------------
C------------------
G--5h6---5h6-5h6---
C--0-----0---0-----
 
 
Riff 2: (0:41)
                      
d-------------------------
A-------------------------
F-------------------------
C-------------------------
G--------6p5--------5h6---
C--0-0-0-0----0-0-0-0-----etc 
PM . . .      . . .
 
Riff 3 = Verse(0:58)
                                                                   (x2)
d----------------------------------------------------------------------
A----------------------------------------------------------------------
F----------------------------------------------------------------------
C----------------------------------------------------------------------
G--0--0-0--0--0--0---0--0-0--0--0--0---1--1-1--1--1--1-5h6-5h6-5h6-0---
C--0--0-0--0--0--0---0--0-0--0--0--0---1--1-1--1--1--1-0---0---0---0---
 “i……………………………………………………………………wanna go awayyyyyyyy……………….”




d----------------------------------------------------------------------
A----------------------------------------------------------------------
F----------------------------------------------------------------------
C----------------------------------------------------------------------
G--0--0-0--0--0--0---0--0-0--0--0--0---1--1-1--1--1--1-5h6-5h6-5h6-0---
C--0--0-0--0--0--0---0--0-0--0--0--0---1--1-1--1--1--1-0---0---0---0---

then (1:15) is riff 2 again

(1:24) riff 3

 
Riff 4 = Pre-Chorus: (1:41)
                                       
d------------------------------------------
A------------------------------------------
F------------------------------------------
C------------------------------------------
G---------------------------------0-3--1---
C---------------------------------0-3--1---
"Shoot me again, I ain't dead yet...."

continued……. (1:59)

d------------------------------------------
A------------------------------------------
F------------------------------------------
C------------------------------------------
G-----00000000-----------------------------
C-----00000000-etc-------------------------
”shoot me again, shoot me again …”

Riff 5 = Chorus: (2:07)
d-----------------------------------------------------------------------
A-----------------------------------------------------------------------
F-----------------------------------------------------------------------
C-----------------------------------------------------------------------
G--0-0---0---0--3-3---3---3--1-1---1---1--5h6-6-5h6-6-5h6-6-6-6-6-6-6---
C--0-0-0-0-0-0--3-3-3-3-3-3--1-1-1-1-1-1--0---0-0---0-0---0-0-0-0-0-0---
”all the shots I take..i spit back at you”
 
d--------------------------------------
A--------------------------------------
F--------------------------------------
C--------------------------------------
G--5h6-5h6-5h6-5h6---5h6-5h6-5h6-5h6---
C--0---0---0---0-----0---0---0---0-----
"All the shots, all the shots..."

well as you can guess..the rest of the song is the same riffs over so work out wat riffs (above) are where and when.

enjoy this tab!
            
Submit corrections

comments powered by Disqus
↑ Back to top | Metallica Tabs for Shoot Me Again. Lyrics for acoustic guitar and electric guitar. Tablatures and chords are parodies/interpretations of the original songs. You may use it for private study, scholarship, research or language learning purposes only