» » »

Metallica, Shoot Me Again Tabs (ver.2)

Artists:  A B C D E F G H I J K L M N O P Q R S T U V W X Y Z # 

Shoot Me Again Tabs (ver.2)

Metallica Tabs
 Rating:
4/5 (4 votes)
Shoot Me Again lessons Tabs too difficult? Try these video lessons and learn fast
                Dropped D - A whole step down
Youll have to listen to the song to figure out which part goes where
And Im doin this tab kinda drunk...so changes may come later (sober)

-|--------------------------------------------------------------------------|-
-|--------------------------------------------------------------------------|-
-|--------------------------------------------------------------------------|-
-|--------------------------------------------------0-----------------------|-
-|--0--0--0--0--0--0--0--0--0--0--0--0--0--0--0--0--0-----------------------|-
-|--0--0--0--0--0--0--0--0--0--0--0--0--0--0--0--0--0-----------------------|-
                                                                              

-|---------------------------------------|----------------------------------|-
-|---------------------------------------|----------------------------------|-
-|---------------------------------------|----------------------------------|-
-|---------------------------------------|--0---0----0--0----0----0---------|-
-|--0h3h5---------0h3h5-------0h3h5------|--0---0----0--0----0----0---------|-
-|--0-----0-0-0-0-0-----0-0-0-0-----0-0--|--0---0----0--0----0----0---------|-
          . . . .       . . .       . .                                       

-|---------------------|----------------------------------------------------|-
-|---------------------|----------------------------------------------------|-
-|---------------------|----------------------------------------------------|-
-|--0-0------x-0-0--1--|--0--0-0--0----0-0--0-0--0----3--3-3--3----0h1-1-1-1|-
-|--0-0-6p5--x-0-0--1--|--0--0-0--0----0-0--0-0--0----3--3-3--3----0h1-1-1-1|-
-|--0-0------x-0-0--1--|--0--0-0--0----0-0--0-0--0----3--3-3--3----0h1-1-1-1|-
    . .        . .        .    .       .    . .       .    .  .               

-|-------------------------|------------------------------------------------|-
-|-------------------------|------------------------------------------------|-
-|-------------------------|------------------------------------------------|-
-|--x-x--0--3----1--1-1/3--|------------------------------------------------|-
-|--x-x--0--3----1--1-1/3--|------------------------------------------------|-
-|--x-x--0--3----1--1-1/3--|------------------------------------------------|-
  Part before chorus                                                          

-|---------------------------------------------------|----------------------|-
-|---------------------------------------------------|----------------------|-
-|---------------------------------------------------|----------------------|-
-|--0-0--x-0--0-0----3-3--x-3--3-3----1-1--x-1--1-1--|----------------------|-
-|--0-0--x-0--0-0----3-3--x-3--3-3----1-1--x-1--1-1--|----------------------|-
-|--0-0--x-0--0-0----3-3--x-3--3-3----1-1--x-1--1-1--|----------------------|-
  Chorus:listen to the song for rhythm                                        

--|---------------------------------|---------------------------------------|-
--|---------------------------------|---------------------------------------|-
--|---------------------------------|---------------------------------------|-
--|---------------------------------|---------------------------------------|-
--|---------------------------------|---------------------------------------|-
--|--12h13-13-13-13-12h13-13-13-13--|---------------------------------------|-
                                                                              

-|--------------------------------|-----------------------------------------|-
-|--------------------------------|-----------------------------------------|-
-|--------------------------------|-----------------------------------------|-
-|--------------------------------|-----------------------------------------|-
-|------6p5----6p5----6p5----6p5--|------6p5-----6p5-----6p5-----6p5--------|-
-|--0-0---------------------------|--0-0-----0-0-----0-0-----0-0------------|-
    . .                              . .     . .     . .     . .              

--|-------------------------|-----------------------------------------------|-
--|-------------------------|-----------------------------------------------|-
--|-------------------------|-----------------------------------------------|-
--|--0h1-1-1-1-1-1-1-1-1-1--|--0-0--0-0--0-0--0-0--0-0--0-0-----------------|-
--|--0h1-1-1-1-1-1-1-1-1-1--|--0-0--0-0--0-0--0-0--0-0--0-0-----------------|-
--|--0h1-1-1-1-1-1-1-1-1-1--|--0-0--0-0--0-0--0-0--0-0--0-0-----------------|-
                               . .  . .  . .  . .  . .  . .
            
Submit corrections

comments powered by Disqus
↑ Back to top | Metallica Tabs for Shoot Me Again. Lyrics for acoustic guitar and electric guitar. Tablatures and chords are parodies/interpretations of the original songs. You may use it for private study, scholarship, research or language learning purposes only