>
 >
Seek And Destroy 2

Seek And Destroy 2 Guitar Tabs

Metallica - Seek And Destroy 2 chords, tabs, tablatures, lyrics

Guitar lessons | Add/correct | Request | Top 50 tabs Artists:  A B C D E F G H I J K L M N O P Q R S T U V W X Y Z 0-9

Seek And Destroy 2 Guitar Tabs – Metallica

CD, Sheet music, Poster

Do you like Seek And Destroy 2? Share with your friends now
TabsTabs v2Tabs v3
Metallica 
- Seek and Destroy


Legend:

h=hammer on
p=pull off
/=slide up
\=slide down
b=bend
r=release
^=palm mute


e|--------------------------------------|    
B|------3h4-3---------------------------|    Riff 1
D|--------------2h3-2-----------5-2-----|                                                  
G|----------------------2---5p2---------|     Play                                           
A|--0-0-------0-------0---0---0---------|      x8                                                                   
E|--------------------------------------|             
    ^ ^       ^       ^   ^   ^


e|--------------------------------------|
B|--5-3---3-----------------------------|
D|------4---4-3-2-0---------------------|    Riff 2
G|--------------------------------------|
A|--------------------------------------|
E|--------------------------------------|      



e|--------------------------------------|
B|--------------------------------------|    Riff 3
D|--------------------------------------|
G|-----------5-7-5-7-----------2-0------|     Play
A|--2-2-2-2--5-7-5-7--2-2-2-2------2-1--|      x4
E|--0-0-0-0-----------0-0-0-0-----------|   
    ^ ^ ^ ^           ^ ^ ^ ^


e|--------------------------------------|
B|--------------------------------------|
D|------------------------------2-------|
G|--------------------------------0-----|     Play
A|--2-2-2-2-2-2-2-2-2-2-2-2-2-1---------|      x8
E|--0-0-0-0-0-0-0-0-0-0-0-0-------------|
    ^ ^ ^ ^ ^ ^ ^ ^ ^ ^ ^ ^ ^ ^


e|--------------------------------------|
B|--------------------------------------|
D|--------------------------------------|
G|--2-2-2-2-5/7\5-5-2-2-2-5/7\5---------|
A|--0-0-0-0-3/5\3-3-0-0-0-3/5\3---------|
E|--------------------------------------|
      ^ ^ ^         ^ ^ ^


e|--------------------------------------|
B|--------------------------------------|
D|-----------------7-5------------------|
G|--5-2-2-2-5/7\5------7-6-5------------|
A|--3-0-0-0-3/5\3------------7-6-5------|
E|--------------------------------------|



e|--------------------------------------|
B|--------------------------------------|
D|--------------------------------------|
G|--2-2-2-2-5/7\5-5-2-2-2-5/7\5---------|
A|--0-0-0-0-3/5\3-3-0-0-0-3/5\3---------|
E|--------------------------------------|
      ^ ^ ^         ^ ^ ^


e|---------------------------------------------------|
B|-----------------5-3---3----------5-3---3----------|
D|---------------------4---4-3-2--------4---4-3-2----|
G|--5-2-2-2-5/7\5----------------5----------------5--|
A|--3-0-0-0-3/5\3------------------------------------|
E|---------------------------------------------------|



e|---------------------------------------------------|
B|---------------------------------------------------|    Chorus
D|---------------------------------------------------|     
G|--5----4--3--2-------------------------------------|     Play 
A|--5----4--3--2-2-2-2-2-2-2-2-2-2-2-2-2-2-2-2-------|      x3
E|--3----2--1--0-0-0-0-0-0-0-0-0-0-0-0-0-0-0-0-------|
                 ^ ^ ^ ^ ^ ^ ^ ^ ^ ^ ^ ^ ^ ^ ^



e|---------------------------------------------------|
B|---------------------------------------------------|
D|---------------------------------------------------|
G|--5----4--3--2-------------------------------------|
A|--5----4--3--2-2-2-2-------------------------------|
E|--3----2--1--0-0-0-0-------------------------------|
                 ^ ^ ^


e|--------------------------------------|
B|--------------------------------------|    Riff 3
D|--------------------------------------|
G|-----------5-7-5-7-----------2-0------|     Play
A|--2-2-2-2--5-7-5-7--2-2-2-2------2-1--|      x4
E|--0-0-0-0-----------0-0-0-0-----------|   
    ^ ^ ^ ^           ^ ^ ^ ^


e|--------------------------------------|
B|--------------------------------------|
D|------------------------------2-------|
G|--------------------------------0-----|     Play
A|--2-2-2-2-2-2-2-2-2-2-2-2-2-1---------|      x4
E|--0-0-0-0-0-0-0-0-0-0-0-0-------------|
    ^ ^ ^ ^ ^ ^ ^ ^ ^ ^ ^ ^ ^ ^


e|--------------------------------------|
B|--------------------------------------|
D|--------------------------------------|
G|--2-2-2-2-5/7\5-5-2-2-2-5/7\5---------|
A|--0-0-0-0-3/5\3-3-0-0-0-3/5\3---------|
E|--------------------------------------|
      ^ ^ ^         ^ ^ ^


e|--------------------------------------|
B|--------------------------------------|
D|-----------------7-5------------------|
G|--5-2-2-2-5/7\5------7-6-5------------|
A|--3-0-0-0-3/5\3------------7-6-5------|
E|--------------------------------------|



e|--------------------------------------|
B|--------------------------------------|
D|--------------------------------------|
G|--2-2-2-2-5/7\5-5-2-2-2-5/7\5---------|
A|--0-0-0-0-3/5\3-3-0-0-0-3/5\3---------|
E|--------------------------------------|
      ^ ^ ^         ^ ^ ^


e|---------------------------------------------------|
B|-----------------5-3---3----------5-3---3----------|
D|---------------------4---4-3-2--------4---4-3-2----|
G|--5-2-2-2-5/7\5----------------5----------------5--|
A|--3-0-0-0-3/5\3------------------------------------|
E|---------------------------------------------------|



e|---------------------------------------------------|
B|---------------------------------------------------|    Chorus
D|---------------------------------------------------|     
G|--5----4--3--2-------------------------------------|     Play 
A|--5----4--3--2-2-2-2-2-2-2-2-2-2-2-2-2-2-2-2-------|      x3
E|--3----2--1--0-0-0-0-0-0-0-0-0-0-0-0-0-0-0-0-------|
                 ^ ^ ^ ^ ^ ^ ^ ^ ^ ^ ^ ^ ^ ^ ^


e|---------------------------------------------------|
B|---------------------------------------------------|
D|---------------------------------------------------|
G|--5----4--3--2----9\-------------------------------|
A|--5----4--3--2----7\-------------------------------|
E|--3----2--1--0-------------------------------------|



e|-----------------------------------------------------------------|
B|-----------------------------------------------------------------|    Double
D|--0h2---2---2---5p2-----2---2---4p2-----2---2--------------------|     Time
G|--0h2---2---2---5p2-----2---2---4p2-----2---2--------3-2-0-------|     Play
A|------0---0---0---0---0---0---0---0---0---0----3-2-0-------3-0---|      x4
E|-----------------------------------------------------------------|
        ^   ^   ^   ^   ^   ^   ^   ^   ^   ^    ^ ^ ^ 


e|---------------------------------------------------|
B|---------------------------------------------------|
D|---------------------------------------------------|
G|--5----4--3----------------------------------------|
A|--5----4--3----------------------------------------|
E|--3----2--1----------------------------------------|



e|--/12-13-12-15-12-13-12-15-12-13-12-15-12-13-12h13p12h13p12------|
B|-----------------------------------------------------------------|
D|-----------------------------------------------------------------|
G|-----------------------------------------------------------------|
A|-----------------------------------------------------------------|
E|-----------------------------------------------------------------|



e|-----------------------------------------------------------------|
B|--12-12h15p12----12----------------------------------------------|
G|--------------15----15-14-12----12-------------------------------|
D|-----------------------------14----14p12h14p12-------------------|
A|-----------------------------------------------14----------------|
E|-----------------------------------------------------------------|



e|--17b19--17b19r17p15---------------------------------------------|
B|---------------------17-15-14-------15b16r15---------------------|
G|------------------------------17-16------------------------------|
D|-----------------------------------------------------------------|
A|-----------------------------------------------------------------|
E|-----------------------------------------------------------------|



e|---------------------------------------------------|
B|---------------------------------------------------|
G|------------------------------------2--------------|     End
D|--------3-2-0------------3-2-0------2--------------|     Solo
A|--3-2-0-------3-0--3-2-0-------3-0--0--------------|
E|---------------------------------------------------|
    ^ ^ ^            ^ ^ ^


e|--------------------------------------|    
B|------3h4-3---------------------------|    Riff 1
D|--------------2h3-2-----------5-2-----|                                                 
G|----------------------2---5p2---------|     Play                                           
A|--0-0-------0-------0---0---0---------|      x8                                                                   
E|--------------------------------------|             
    ^ ^       ^       ^   ^   ^


e|--------------------------------------|
B|--5-3---3-----------------------------|
D|------4---4-3-2-0---------------------|    Riff 2
G|--------------------------------------|
A|--------------------------------------|
E|--------------------------------------|  



e|--------------------------------------|
B|--------------------------------------|    Riff 3
D|--------------------------------------|
G|-----------5-7-5-7-----------2-0------|     Play
A|--2-2-2-2--5-7-5-7--2-2-2-2------2-1--|      x4
E|--0-0-0-0-----------0-0-0-0-----------|   
    ^ ^ ^ ^           ^ ^ ^ ^


e|--------------------------------------|
B|--------------------------------------|
D|------------------------------2-------|
G|--------------------------------0-----|     Play
A|--2-2-2-2-2-2-2-2-2-2-2-2-2-1---------|      x4
E|--0-0-0-0-0-0-0-0-0-0-0-0-------------|
    ^ ^ ^ ^ ^ ^ ^ ^ ^ ^ ^ ^ ^ ^


e|--------------------------------------|
B|--------------------------------------|
D|--------------------------------------|
G|--2-2-2-2-5/7\5-5-2-2-2-5/7\5---------|
A|--0-0-0-0-3/5\3-3-0-0-0-3/5\3---------|
E|--------------------------------------|
      ^ ^ ^         ^ ^ ^


e|--------------------------------------|
B|--------------------------------------|
D|-----------------7-5------------------|
G|--5-2-2-2-5/7\5------7-6-5------------|
A|--3-0-0-0-3/5\3------------7-6-5------|
E|--------------------------------------|



e|--------------------------------------|
B|--------------------------------------|
D|--------------------------------------|
G|--2-2-2-2-5/7\5-5-2-2-2-5/7\5---------|
A|--0-0-0-0-3/5\3-3-0-0-0-3/5\3---------|
E|--------------------------------------|
      ^ ^ ^         ^ ^ ^


e|---------------------------------------------------|
B|-----------------5-3---3----------5-3---3----------|
D|---------------------4---4-3-2--------4---4-3-2----|
G|--5-2-2-2-5/7\5----------------5----------------5--|
A|--3-0-0-0-3/5\3------------------------------------|
E|---------------------------------------------------|



e|---------------------------------------------------|
B|---------------------------------------------------|    Chorus
D|---------------------------------------------------|     
G|--5----4--3--2-------------------------------------|     Play 
A|--5----4--3--2-2-2-2-2-2-2-2-2-2-2-2-2-2-2-2-------|      x4
E|--3----2--1--0-0-0-0-0-0-0-0-0-0-0-0-0-0-0-0-------|
                 ^ ^ ^ ^ ^ ^ ^ ^ ^ ^ ^ ^ ^ ^ ^


e|------------------------------------------------------------------|
B|------------------------------------------------------------------|
D|------------------------------------------------------------------|    Play
G|--5-4-----4-3-----3-2-------------5-4-----4---------2-------------|     x4
A|--5-4-----4-3-----3-2-------------5-4-----4-5-----5-2-------------|
E|------0-0-----0-0-----0-0-0-0-0-0-----0-0---5-0-0-5---0-0-0-0-0-0-|
        ^ ^     ^ ^     ^ ^ ^ ^ ^ ^     ^ ^     ^ ^     ^ ^ ^ ^ ^ ^


e|---------------------------------------------------|
B|---------------------------------------------------|
D|---------------------------------------------------|    Play
G|-----2-----5-----4-----5-----7-5-------------------|     x4
A|-----2-----5-----4-----5-----7-5-------------------|
E|-0-0---0-0---0-0---0-0---0-0-----------------------|
   ^ ^   ^ ^   ^ ^   ^ ^   ^ ^


e|------------------------------------------------------------------|
B|--5-3---3----------5-3---3----------5-3---3-----------------------|
D|------4---4-3-2-0------4---4-3-2-0------4---4-3-2-0---------------|    Outro    
G|------------------------------------------------------------------|
A|----------------------------------------------------2-2-2-2-5-----|
E|----------------------------------------------------0-0-0-0-3-----|  
                                                      ^ ^ ^ ^


    
This is my first TAB, and it's dedicated to all my friends... Fily, Zio Piras, Alessio, Viskio, Simo, Ele, Emy...





Comments


Popular Metallica tabs & chords
Cunning Stunts 4 Bass Tabs
Fuel Bass Tabs
Attitude Chords
Mama Said Chords
Astronomy 4 Tabs
Fade To Black 4 Tabs
Hell And Back Tabs
Hero Of The Day Complete Tabs
Master Of Puppets Harmonic Tabs
Turn The Page 2 Tabs


Song lyrics



↑ Back to top | Tablatures and chords are parodies/interpretations of the original songs. You may use it for private study, scholarship, research or language learning purposes only
© 2014 AZChords.com Contact us | Privacy policy | DMCA | Add/correct tabs | Request tabs | Top 50 tabs