» » »

Seek & Destroy Tabs (ver.3)

Artists:  A B C D E F G H I J K L M N O P Q R S T U V W X Y Z # 

Seek & Destroy Tabs (ver.3)

Metallica
Rating:
0/5 (0 votes)

Hard to play? Try these video lessons and learn fast.
                (Intro)
Part of the "Seek and Destroy" Intro by MetallicA

S = Slide

e]---------------------------------------------
B]---------------------------------------------
G]-------7s8s7------------------2---5-2--------
D]-----------------7s8s7--2-3-2---2------------
A]--0-0---------0------------------------------
E]---------------------------------------------
      Repeat Above Tab 8 Times

e]------------------------------------------------------
B]--5-3----3--------------------------------------------
G]-------4---4-3-2--------------------------------------
D]--------------------------0-2-0-2-----------2-0-------
A]-----------------2-2-2-2-----------2-2-2-2-------2-1--
E]-----------------0-0-0-0-----------0-0-0-0------------


thats all i got so far
            
Hard to play? Try these video lessons and learn fast. | Correct




comments powered by Disqus
↑ Back to top | Tablatures and chords are parodies/interpretations of the original songs. You may use it for private study, scholarship, research or language learning purposes only