» » »

Metallica, Seek & Destroy Tabs (ver.5)

Artists:  A B C D E F G H I J K L M N O P Q R S T U V W X Y Z # 

Seek & Destroy Tabs (ver.5)

Metallica Tabs
 Rating:
4/5 (4 votes)
Seek & Destroy lessons Tabs too difficult? Try these video lessons and learn fast
                This is the Seek and Destroy Solo. No one ever tabs out solo's except 
for a few but this one is right!
If anyone wants any of METALLICA'S solo's from Kill em' all, 
Ride the Lightening, Master of puppets, or the Black Album just e-mail me at 


                           Seek and Destroy Solo
                               Kill em' All
                                                                        
Eb---------12--15p12------12--15p12--17p12--15p12------12--15p12--17----
Bb--12/15-------------12---------------------------15-------------------
Gb----------------------------------------------------------------------
Db----------------------------------------------------------------------
Ab----------------------------------------------------------------------
Eb----------------------------------------------------------------------
                                                                        

                                                                        
Eb--12--15--12------12------12------------------------------------------
Bb--------------15------15------15^-------------------------------------
Gb----------------------------------------------------------------------
Db----------------------------------------------------------------------
Ab----------------------------------------------------------------------
Eb----------------------------------------------------------------------
                                                                        

                                                                        
Eb----------------------------------------------------------------------
Bb----------------------------------------------------------------------
Gb----------------------------------------------------------------------
Db----------------------------------------------------------------------
Ab----------------------------------------------------------------------
Eb----------------------------------------------------------------------
                                                                        

                                                                        
Eb--------7--7--10p7------7--7------------------------------------------
Bb--------------------10--------10p7--10p7------------------------------
Gb------------------------------------------9--7-----7--9^--(9)p7-------
Db------------------------------------------------9----------------9----
Ab----------------------------------------------------------------------
Eb----------------------------------------------------------------------
                                                                        

                                                                        
Eb----------------------------------------------------------------------
Bb----------------------------------------------------------------------
Gb----------------------------------------------------------------------
Db----------------------------------------------------------------------
Ab----------------------------------------------------------------------
Eb----------------------------------------------------------------------
                                                                        

                                                                        
Eb--17^----------16--15--14---------------------------------------------
Bb-----------15--------------15--14----------15^^-----------------------
Gb-------15--------------------------16---------------------------------
Db---------------------------------------17-----------------------------
Ab----------------------------------------------------------------------
Eb----------------------------------------------------------------------
                                                                        

                                                                        
Eb-----------------20--20--23--20--18--22--19--19--21--21--17--15-------
Bb------------/23-------------------------------------------------------
Gb----------------------------------------------------------------------
Db----------------------------------------------------------------------
Ab----------------------------------------------------------------------
Eb----------------------------------------------------------------------
                                                                        

                                                                        
Eb--19--16--14--14--17--14--12--16--12--11--14--12\11--9\7--10p7--------
Bb----------------------------------------------------------------10----
Gb----------------------------------------------------------------------
Db----------------------------------------------------------------------
Ab----------------------------------------------------------------------
Eb----------------------------------------------------------------------
                                                                        

                                                                        
Eb--7--10--7------------------------------------------------------------
Bb------------10--7--10p7-----------7-----------------------------------
Gb-------------------------9--7--9-----9--9^--(9)p7--9--7-----7---------
Db---------------------------------------------------------9------------
Ab----------------------------------------------------------------------
Eb---------------------------------------------------------------5------
                                                                        

                                                                        
Eb----------------------------------------------------------------------
Bb----------------------------------------------------------------------
Gb----------------------------------------------------------------7-----
Db-------------7--9p7-----7h9--9--7--9--9^--(9)p7--9--7--(7)^--9--------
Ab--------5/9----------9------------------------------------------------
Eb--5--7----------------------------------------------------------------
                                                                        

                                                                        
Eb----------------------------------------------------------------------
Bb---------7--10p7-------------------------------------12--15^--12------
Gb--9--9^-----------9--7-----7--9^--(9)p7--9^\----/14-------------------
Db------------------------9---------------------------------------------
Ab----------------------------------------------------------------------
Eb----------------------------------------------------------------------
                                                                        

                                                                        
Eb------------------12----------------------12------------------12------
Bb--15p12------15^------15p12--12--15--15^------15p12--15--15^----------
Gb---------14-----------------------------------------------------------
Db----------------------------------------------------------------------
Ab----------------------------------------------------------------------
Eb----------------------------------------------------------------------
                                                                        

                                                                        
Eb------12--15p12-------------------------------------------------------
Bb--15-------------15--12------12--15p12--------------------------------
Gb-------------------------14-------------14--12------12--14p12---------
Db------------------------------------------------14-------------14-----
Ab----------------------------------------------------------------------
Eb----------------------------------------------------------------------
                                                                        

                                                                        
Eb----------------------------------------------------------------------
Bb----------------------------------------------------------------------
Gb--------------------------------------------------------------12------
Db--12----------------------------------12------12--14--12--14----------
Ab------14--12----------12--14--12--14------14--------------------------
Eb--------------15--15--------------------------------------------------
                                                                        

                                                                        
Eb----------------------------------------------12------12--15p12-------
Bb----------------------12------12--15--12--15------15------------------
Gb------12--14--12--14------14------------------------------------------
Db--14------------------------------------------------------------------
Ab----------------------------------------------------------------------
Eb----------------------------------------------------------------------
                                                                        

                                                                        
Eb----------------------------------------------------------------------
Bb--15--12\11--12--15p12------------------------------------------------
Gb------------------------14--12--(12)----------------------------------
Db----------------------------------------------------------------------
Ab----------------------------------------------------------------------
Eb----------------------------------------------------------------------
                                                                        



==                       TABLATURE EXPLANATION                        ==

----------                ----------                ----t---
----5h8--- Hammeron       ----(8)--- Ghost          ----6--- Tap
----------                ---------- Note           --------
----5p8--- Pulloff        ----------                --------

----------                ----------                -----p--
----5/8--- Slide Up       -----x---- Dead           -----7-- Pop
----------                ---------- Note           --s-----
----5\8--- Slide Down     ----------                --5----- Slap 

----------                ||------|| Repeat         --------
----5~~~-- Vibrato        ||*----*||                ---5^--- Bend
----------                ||*----*||                --------
----------                ||------||                --------

----------                ----------                --------
-4:------- Time           ----------                --------
-4:------- Signature      ----------                --------
----------                ----------                --------

Rhythm:
  w = whole note            W = dotted whole
  h = half note             H = dotted half
  q = quarter note          Q = dotted quarter
  e = eighth note           E = dotted eighth
  s = sixteenth note        S = dotted sixteenth
  t = 32nd note             T = dotted 32nd
  x = 64th note             X = dotted 64th
  ^ = triplet
            
Submit corrections

comments powered by Disqus
↑ Back to top | Metallica Tabs for Seek & Destroy. Lyrics for acoustic guitar and electric guitar. Tablatures and chords are parodies/interpretations of the original songs. You may use it for private study, scholarship, research or language learning purposes only