» » »

Of Wolf And Man Tabs (ver.3)

Artists:  A B C D E F G H I J K L M N O P Q R S T U V W X Y Z # 

Of Wolf And Man Tabs (ver.3)

Metallica
Rating:
0/5 (0 votes)

Hard to play? Try these video lessons and learn fast.
                e:------------|-----------|-----------|-----------|-----------|-----------|
B:------------|-----------|-----------|-----------|-----------|-----------|
G:------------|-----------|-----------|-----------|-----------|-----------|
D:-2--2--2--2-|2--2--2--2-|2--2--2--2-|2--2--2--2-|2--2--2--2-|2--2--2--2-|
A:-2--2--2--2-|2--2--2--2-|2--2--2--2-|2--2--2--2-|2--2--2--2-|2--2--2--2-|
E:-0--0--0--0-|0--0--0--0-|0--0--0--0-|0--0--0--0-|0--0--0--0-|0--0--0--0-|


                                                              


e:-----------------------------|-----------------------------|
B:-----------------------------|-----------------------------|
G:-----------------------------|-----------------------------|
D:---------------------4-----3-|---------------------4-----3-|
A:------------3--2-----2-----1-|------------3--2-----2-----1-|
E:-0----0--0--1--0--0-----0----|-0----0--0--1--0--0-----0----|


                                    


e:---------------------------------|
B:---------------------------------|
G:---------------------------------|
D:----------------------------4--3-|
A:------------3--2------------2--1-|
E:-0----0--0--1--0--0---0--0-------|

e:----------------------------|-------------------------------|-|
B:----------------------------|-------------------------------|-|
G:----------------------------|-------------------------------|-|
D:--------------------4-----3-|-------------------------------|-|
A:-----------3--2-----2-----1-|--------5-7-5-0-5-7---5-7--7\--|-|
E:0----0--0--1--0--0-----0----|--5--7-------------------------|-|

e:---------------|----------------||--------------------------------|
B:---------------|----------------||--------------------------------|
G:---------------|----------------||--------------------------------|
D:-2---2---2---2-|-----4-------3--||----------------------4-------3-|
A:-2---2---2---2-|-----2-------1--||--2---2---3---2-------2-------1-|
E:-0---0---0---0-|-0-------0------||--0---0---1---0---0-------0-----|

e:-------------------------------|-------------------------------|
B:-------------------------------|-------------------------------|
G:-------------------------------|-------------------------------|
D:---------------------6-------5-|---------------------6-------5-|
A:-2---2---3---2-------4-------3-|-4---4---5---4-------4-------3-|
E:-0---0---1---0---0-------0-----|-2---2---3---2---0-------0-----|

e:-----------------------------------------|------------------|
B:-----------------------------------------|------------------|
G:-----------------------------------------|------------------|
D:-----------------------------------------|------------------|
A:-----------5---4-------------5---4-------|-4---4---4--------|
E:-2---2-2---3---2---2---2-2---3---2-------|-2---2---2---14\--|

 Solo
|--------------------------------------|
|--------------------------------------|
|--4p2p0---0----4p2p0---0----4p2p0-----|
|--------2------------2------------2p0-|
|--------------------------------------|
|--------------------------------------|


                                                   
--------------------------------------------------|
--------------------------------------------------|
--4p2p0-------------4p2p0-4p2p0-------------------|
--------4p2p0-------------------4p2p0-4p2p0-------|
--------------4p2p0-------------------------4p2p0-|
--------------------------------------------------|


                                                                              
 
----------------------------------|-------------------------------------------|
----------------------------------|-------------------------------------------|
----------------------------------|---------------------------------12h14-14b-|
----------------------------------|---------------------------12h14-----------|
--2p0-3p0-4p0-5p0-6p0-7p0-8p0-9p0-|--9p0-10p0-11p0-12p0-12h14-----------------|
----------------------------------|-------------------------------------------|


                                                           
----------------------------------------------------------|
--8----------12-15----12-15p12----12h15p12----12h15p12----|
----9---9/14-------14b---------14----------14----------14-|
----------------------------------------------------------|
----------------------------------------------------------|
----------------------------------------------------------|


                                                                         
--12h15p12----12h15p12----12h15p12----12h15p12----12h15p12----12h15p12--|
-----------14----------14----------14----------14----------14-----------|


                                       
--------------12-------------12-------|
--15b--15b-------15p12----12----15p12-|
-----------------------14b------------|
--------------------------------------|
--------------------------------------|
--------------------------------------|


                                                                           
-----12-12------------------------------------|---------------------------|
-----------15p12----12-15p12------------------|---------------------------|
--14b------------14b---------14p12----12-14b--|--12-----------------------|
-----------------------------------14---------|-----14~-------14\--8/-17--|
----------------------------------------------|---------------------------|
----------------------------------------------|---------------------------|


                                         
----------------------------------------|
--15--15-15--15-15--17p15----15--15-15--|
--15--15-15--15-15--17p15----15--15-15--|
--------------------------17------------|
----------------------------------------|
----------------------------------------|


                                               
----------------------------------------------|
--17p15---------------------------------------|
--17p15----15-17p15----15-17p15-----------15\-|
--------17----------17----------17-15-17------|
----------------------------------------------|
----------------------------------------------|


                                     
------------------------------------|
----------------------------8----8--|
-----------8----8--10-8-10----10----|
--10-8-10----10---------------------|
------------------------------------|
------------------------------------|


                                             
-----8--------------------------------------|
--11b--11p8----8-11p8-11b-13-13-13-13-13-13-|
------------10b-----------------------------|
--------------------------------------------|
--------------------------------------------|
--------------------------------------------|


                                                                
------------------------------------|--------------------------|
--13--13-13--13--13--13--13--13--13-|--11r-------8-------------|
------------------------------------|--------------9~----------|
------------------------------------|--------------------10/14-|
------------------------------------|--------------------------|
------------------------------------|--------------------------|


                                                            
-----------------------------------------------------------|
--------------14p12----------------14p12----------------14p|
--12h14p12-------------12h14p12-------------12h14p12-------|
-----------14-------14----------14-------14----------14----|
-----------------------------------------------------------|
-----------------------------------------------------------|


                                                                          
----------------------------------------------------|--------------------|
--12----------------14p12-----------------------12--|----------------12--|
--------12h14p12-------------12h14p12-----------12--|----------------12--|
-----14----------14-------14----------14-12-14------|--------------------|
----------------------------------------------------|--------------------|
----------------------------------------------------|--------------------|
            
Hard to play? Try these video lessons and learn fast. | Correct




comments powered by Disqus
↑ Back to top | Tablatures and chords are parodies/interpretations of the original songs. You may use it for private study, scholarship, research or language learning purposes only