» » »

Of Wolf And Man Tabs (ver.1)

Artists:  A B C D E F G H I J K L M N O P Q R S T U V W X Y Z # 

Of Wolf And Man Tabs (ver.1)

Metallica
Rating:
0/5 (0 votes)

Tabs too difficult? Try these video lessons and learn fast.
                Solo from the song "Of Wolf and Man" by Metallica. This solo contains some nice patterns (marked with *) which you can use for own solos.

e:----------------------------------------|
B:----------------------------------------|
G:---4p2p0---0----4p2p0---0----4p2p0------|
D:---------2------------2------------2p0--|
A:----------------------------------------|
E:----------------------------------------|

                   AH    AH  pitch F# (at 23)
|-------------------------------------------------|
|-------------------------------------------------|
|--4p2p0------------4p2p0-4p2p0-------------------|
|-------4p2p0-------------------4p2p0-4p2p0-------|
|-------------4p2p0-------------------------4p2p0-|
|-------------------------------------------------|


|-----------           -|-                ----------------------------------|
|-----------                              ----------------------------------|
|-----------                              ------------------12-14-14b(16)---|
|-----------                              ------------12h14-----------------|
|-2p0-3p0-- ... these pull-offs up to ... -12p0-12h14-----------------------|
|-----------                              ----------------------------------|


           repeat this pattern 8 times:  *

|-------------------------------------- ------------- -|
|---------------12-15---------12-15p12- ----12h15p12- -|
|-12-------9s14-------14b(16)---------- -14---------- -|
|----14-------------------------------- ------------- -|
|-------------------------------------- ------------- -|
|-------------------------------------- ------------- -|

             ~~~~~~~~~~~~
|-------------------------12------------------12----------|
|-15b(17)-15b(17)----(17)----15p12---------12----15p12----|
|----------------------------------14b(16)----------------|
|---------------------------------------------------------|
|---------------------------------------------------------|
|---------------------------------------------------------|


|---------12-12---------------------------------------------------|
|---------------15p12---------12-15p12----------------------------|
|-14b(16)-------------14b(16)----------14p12----12-14b---(16)-----|
|--------------------------------------------14-------------------|
|-----------------------------------------------------------------|
|-----------------------------------------------------------------|

     ~~~~~~~~~~~         *
|----------------------|---------------------------------------|
|----------------------|-15--15-15--15-15--17p15----15--15-15--|
|-12-------------------|-15--15-15--15-15--17p15----15--15-15--|
|----14------(14)\8/17-|-------------------------17------------|
|----------------------|---------------------------------------|
|----------------------|---------------------------------------|


|-----------------------------------------------|
|-17p15-----------------------------------------|
|-17p15----15-17p15----15-17p15------------15\--|
|-------17----------17----------17-15-17--------|
|-----------------------------------------------|
|-----------------------------------------------|

 *
|------------------------------------|
|---------------------------8----8---|
|----------8----8--10-8-10----10-----|
|-10-8-10----10----------------------|
|------------------------------------|
|------------------------------------|


                     play 11 bent to 13: 

|---------------------------------------------------------|
|-[13]--[13]-[13]-[13]-[13]--[13]--[13]--[13]--[13]--[13]-|
|---------------------------------------------------------|
|---------------------------------------------------------|
|---------------------------------------------------------|
|---------------------------------------------------------|


                     ~~~~~~~~~
|-------------------------------------|
|-(13)-------r(11)-8------------------|
|--------------------9----------------|
|------------------------------10/14--|
|-------------------------------------|
|-------------------------------------|

repeat this 4 times:   *
   

|- ---------------------- ----------------------|------------|----------------|
|- -------------14p12---- -------------------12-|-(12)----12-|-(12)---(12)\---|
|- -12h14p12------------- -12h14p12----------12-|-(12)----12-|-(12)---(12)\---|
|- ----------14-------14- ----------14-12-14----|------------|----------------|
|- ---------------------- ----------------------|------------|----------------|
|- ---------------------- ----------------------|------------|----------------|
            
Tabs too difficult? Try these video lessons and learn fast.


comments powered by Disqus
↑ Back to top | Tablatures and chords are parodies/interpretations of the original songs. You may use it for private study, scholarship, research or language learning purposes only